  0
SECTION
  2
HEADER
  9
$ACADVER
  1
AC1009
  9
$EXTMIN
 10
-6.7024128686327078
 20
-16.957104557640751
  9
$EXTMAX
 10
16.756032171581786
 20
8.0428954423592494
  9
$TEXTSTYLE
  7
STANDARD
  9
$DIMLFAC
 40
1
  9
$REGENMODE
 70
1
  9
$DRAGMODE
 70
2
  9
$DIMASO
 70
1
  9
$LTSCALE
 40
1.0000000000
  0
ENDSEC
  0
SECTION
  2
TABLES
  0
TABLE
  2
LTYPE
 70
2
  0
LTYPE
  2
CONTINUOUS
 70
64
  3
CONTINUOUS
 72
65
 73
0
 40
0.0000000000
  0
LTYPE
  2
DASHDOT
 70
64
  3
DASHDOT
 72
65
 73
4
 40
1.0000000000
 49
0.5000000000
 49
-0.2500000000
 49
0.0000000000
 49
-0.2500000000
  0
ENDTAB
  0
TABLE
  2
LAYER
 70
2
  0
LAYER
  2
0
 70
0
 62
2
  6
CONTINUOUS
  0
LAYER
  2
249
 70
0
 62
2
  6
CONTINUOUS
  0
ENDTAB
  0
TABLE
  2
STYLE
 70
0
  0
STYLE
  2
Standard
 70
0
 40
0
 41
1
 50
0
 71
0
 42
2.5
  3
txt
  4

  0
ENDTAB
  0
ENDSEC
  0
SECTION
  2
BLOCKS
  0
BLOCK
  8
0
 62
140
  6
CONTINUOUS
  2
TELL_2
 70
0
 10
-3.3512064343163539
 20
0.83780160857908847
  0
LINE
  8
0
 62
50
  6
CONTINUOUS
 10
-5.6970509383378021
 20
0.67024128686327078
 11
-5.3619302949061662
 21
1.0053619302949062
  0
LINE
  8
0
 62
50
  6
CONTINUOUS
 10
-5.3619302949061662
 20
1.0053619302949062
 11
-5.3512619700102215
 21
1.0053619302949062
  0
LINE
  8
0
 62
50
  6
CONTINUOUS
 10
-5.3512619688059946
 20
1.0053619302949062
 11
-5.3501672510236409
 21
1.0038991229249776
  0
LINE
  8
0
 62
50
  6
CONTINUOUS
 10
-5.3501672510236409
 20
1.0038991213158059
 11
-5.3437267842670293
 21
1.0053619302949062
  0
LINE
  8
0
 62
50
  6
CONTINUOUS
 10
-5.3437267842670293
 20
1.0053619302949062
 11
-5.3212691955229454
 21
1.0053619302949062
  0
LINE
  8
0
 62
50
  6
CONTINUOUS
 10
-5.3212691917585397
 20
1.0053619302949062
 11
-5.3154679675145573
 21
1.0036063790977552
  0
LINE
  8
0
 62
50
  6
CONTINUOUS
 10
-5.3154679675145573
 20
1.0036063793390273
 11
-5.3079850378798739
 21
1.0053619302949062
  0
LINE
  8
0
 62
50
  6
CONTINUOUS
 10
-5.3079850314910093
 20
1.0053619302949062
 11
-5.2689028407290479
 21
1.0053619302949062
  0
LINE
  8
0
 62
50
  6
CONTINUOUS
 10
-5.2689028274419822
 20
1.0053619302949062
 11
-5.2595724113455979
 21
1.0044844279497163
  0
LINE
  8
0
 62
50
  6
CONTINUOUS
 10
-5.2595724113455979
 20
1.0044844281122611
 11
-5.256012762471002
 21
1.0053619302949062
  0
LINE
  8
0
 62
50
  6
CONTINUOUS
 10
-5.2560127563461316
 20
1.0053619302949062
 11
-5.1888430739993741
 21
1.0053619302949062
  0
LINE
  8
0
 62
50
  6
CONTINUOUS
 10
-5.1888430690391534
 20
1.0053619302949062
 11
-5.185283419102622
 21
1.0044844279363054
  0
LINE
  8
0
 62
50
  6
CONTINUOUS
 10
-5.185283419102622
 20
1.0044844280129603
 11
-5.1704341480974358
 21
1.0053619302949062
  0
LINE
  8
0
 62
50
  6
CONTINUOUS
 10
-5.1704341258023652
 20
1.0053619302949062
 11
-5.1082351756914992
 21
1.0053619302949062
  0
LINE
  8
0
 62
50
  6
CONTINUOUS
 10
-5.1082351670444117
 20
1.0053619302949062
 11
-5.0963261510605298
 21
1.0036063791655405
  0
LINE
  8
0
 62
50
  6
CONTINUOUS
 10
-5.0963261510605298
 20
1.0036063792164711
 11
-5.0797472059399444
 21
1.0053619302949062
  0
LINE
  8
0
 62
50
  6
CONTINUOUS
 10
-5.0797471931764786
 20
1.0053619302949062
 11
-5.0155670914724348
 21
1.0053619302949062
  0
LINE
  8
0
 62
50
  6
CONTINUOUS
 10
-5.0155670749496988
 20
1.0053619302949062
 11
-4.9971612960921172
 21
1.0038991227770018
  0
LINE
  8
0
 62
50
  6
CONTINUOUS
 10
-4.9971612960921172
 20
1.0038991227927594
 11
-4.9874454063698455
 21
1.0053619302949062
  0
LINE
  8
0
 62
50
  6
CONTINUOUS
 10
-4.9874453973148718
 20
1.0053619302949062
 11
-1.7149674713179586
 21
1.0053619302949062
  0
LINE
  8
0
 62
50
  6
CONTINUOUS
 10
-1.7149674622628934
 20
1.0053619302949062
 11
-1.7052515725406217
 21
1.0038991227927594
  0
LINE
  8
0
 62
50
  6
CONTINUOUS
 10
-1.7052515725406217
 20
1.0038991227769714
 11
-1.6868457936827959
 21
1.0053619302949062
  0
LINE
  8
0
 62
50
  6
CONTINUOUS
 10
-1.6868457771600751
 20
1.0053619302949062
 11
-1.6226656754561837
 21
1.0053619302949062
  0
LINE
  8
0
 62
50
  6
CONTINUOUS
 10
-1.6226656626929312
 20
1.0053619302949062
 11
-1.6060867175722087
 21
1.0036063792164711
  0
LINE
  8
0
 62
50
  6
CONTINUOUS
 10
-1.6060867175722087
 20
1.0036063791655405
 11
-1.5941777015883576
 21
1.0053619302949062
  0
LINE
  8
0
 62
50
  6
CONTINUOUS
 10
-1.5941776929412543
 20
1.0053619302949062
 11
-1.5319787428303431
 21
1.0053619302949062
  0
LINE
  8
0
 62
50
  6
CONTINUOUS
 10
-1.5319787205353486
 20
1.0053619302949062
 11
-1.5171294495300862
 21
1.0044844280129603
  0
LINE
  8
0
 62
50
  6
CONTINUOUS
 10
-1.5171294495300862
 20
1.0044844279363054
 11
-1.5135697995935697
 21
1.0053619302949062
  0
LINE
  8
0
 62
50
  6
CONTINUOUS
 10
-1.5135697946333491
 20
1.0053619302949062
 11
-1.4464001122866073
 21
1.0053619302949062
  0
LINE
  8
0
 62
50
  6
CONTINUOUS
 10
-1.4464001061617824
 20
1.0053619302949062
 11
-1.4428404572871252
 21
1.0044844281122611
  0
LINE
  8
0
 62
50
  6
CONTINUOUS
 10
-1.4428404572871252
 20
1.0044844279497163
 11
-1.4335100411907407
 21
1.0053619302949062
  0
LINE
  8
0
 62
50
  6
CONTINUOUS
 10
-1.4335100279036297
 20
1.0053619302949062
 11
-1.3944278371417296
 21
1.0053619302949062
  0
LINE
  8
0
 62
50
  6
CONTINUOUS
 10
-1.3944278307528035
 20
1.0053619302949062
 11
-1.3869449011181816
 21
1.0036063793390273
  0
LINE
  8
0
 62
50
  6
CONTINUOUS
 10
-1.3869449011181816
 20
1.0036063790977856
 11
-1.381143676874214
 21
1.0053619302949062
  0
LINE
  8
0
 62
50
  6
CONTINUOUS
 10
-1.3811436731097624
 20
1.0053619302949062
 11
-1.3586860843655717
 21
1.0053619302949062
  0
LINE
  8
0
 62
50
  6
CONTINUOUS
 10
-1.3586860843655717
 20
1.0053619302949062
 11
-1.3522456176090676
 21
1.0038991213158668
  0
LINE
  8
0
 62
50
  6
CONTINUOUS
 10
-1.3522456176090676
 20
1.003899122925008
 11
-1.3511508998267596
 21
1.0053619302949062
  0
LINE
  8
0
 62
50
  6
CONTINUOUS
 10
-1.3511508986225174
 20
1.0053619302949062
 11
-1.3404825737265416
 21
1.0053619302949062
  0
LINE
  8
0
 62
50
  6
CONTINUOUS
 10
-1.3404825737265416
 20
1.0053619302949062
 11
-1.0053619302949062
 21
0.67024128686327078
  0
LINE
  8
0
 62
50
  6
CONTINUOUS
 10
-1.0053619302949215
 20
0.67024128686327078
 11
-5.6970509383378021
 21
0.67024128686327078
  0
ENDBLK
  0
BLOCK
  8
249
 62
5
  6
DASHDOT
  2
TELL_3
 70
0
 10
-3.3512064343163539
 20
6.1662198391420917
  0
LINE
  8
249
 62
50
  6
CONTINUOUS
 10
-3.3512064343163539
 20
6.9014514151878554
 11
-3.9879356568364615
 21
6.5338356271649811
  0
LINE
  8
249
 62
50
  6
CONTINUOUS
 10
-3.9879356568364615
 20
6.5338356271649811
 11
-3.9879356568364615
 21
5.7986040511192014
  0
LINE
  8
249
 62
50
  6
CONTINUOUS
 10
-3.9879356568364615
 20
5.7986040511192014
 11
-3.3512064343163539
 21
5.4309882630963271
  0
LINE
  8
249
 62
50
  6
CONTINUOUS
 10
-3.3512064343163539
 20
5.4309882630963271
 11
-2.7144772117962468
 21
5.7986040511192014
  0
LINE
  8
249
 62
50
  6
CONTINUOUS
 10
-2.7144772117962468
 20
5.7986040511192014
 11
-2.7144772117962468
 21
6.5338356271649811
  0
LINE
  8
249
 62
50
  6
CONTINUOUS
 10
-2.7144772117962468
 20
6.5338356271649811
 11
-3.3512064343163539
 21
6.9014514151878554
  0
CIRCLE
  8
249
 62
50
  6
CONTINUOUS
 10
-3.3512064343163539
 20
6.1662198391420917
 40
0.63672922252010722
  0
LINE
  8
249
 62
5
  6
DASHDOT
 10
-3.3512064343163539
 20
5.2969400057236733
 11
-3.3512064343163539
 21
7.0354996725605101
  0
LINE
  8
249
 62
5
  6
DASHDOT
 10
-4.2204862677347874
 20
6.1662198391420917
 11
-2.4819266008979204
 21
6.1662198391420917
  0
ENDBLK
  0
BLOCK
  8
249
 62
5
  6
DASHDOT
  2
TELL_4
 70
0
 10
-3.3512064343163845
 20
2.4798927613941326
  0
CIRCLE
  8
249
 62
50
  6
CONTINUOUS
 10
-3.3512064343163845
 20
2.4798927613941326
 40
0.33019436997319035
  0
ARC
  8
249
 62
5
  6
CONTINUOUS
 10
-3.3512064343163845
 20
2.4798927613941326
 40
0.40214477211796251
 50
175.00000000000003
 51
90
  0
LINE
  8
249
 62
5
  6
DASHDOT
 10
-3.3512064343163845
 20
3.0160857908847492
 11
-3.3512064343163845
 21
1.9436997319035159
  0
LINE
  8
249
 62
5
  6
DASHDOT
 10
-3.8873994638070011
 20
2.4798927613941326
 11
-2.815013404825768
 21
2.4798927613941326
  0
ENDBLK
  0
BLOCK
  8
0
 62
50
  6
CONTINUOUS
  2
TELL_1
 70
0
 10
-3.3512064343230565
 20
0
  0
INSERT
  8
0
 62
140
  6
CONTINUOUS
  2
TELL_2
 10
-3.3512064343163539
 20
0.83780160857908847
 41
1.0
 42
1.0
 50
0.0
  0
LINE
  8
0
 62
50
  6
CONTINUOUS
 10
-5.6970509383378021
 20
0.67024128686327078
 11
-5.3619302949061662
 21
1.0053619302949062
  0
LINE
  8
0
 62
50
  6
CONTINUOUS
 10
-1.3511508986225174
 20
1.0053619302949062
 11
-1.3404825737265416
 21
1.0053619302949062
  0
LINE
  8
0
 62
50
  6
CONTINUOUS
 10
-1.3404825737265416
 20
1.0053619302949062
 11
-1.0053619302949062
 21
0.67024128686327078
  0
LINE
  8
0
 62
50
  6
CONTINUOUS
 10
-1.3404825737265416
 20
8.0428954423592494
 11
-1.3404825737265416
 21
7.5067024128686333
  0
LINE
  8
0
 62
50
  6
CONTINUOUS
 10
-1.3511508998267596
 20
1.0053619302949062
 11
-1.3522456176090676
 21
1.003899122925008
  0
LINE
  8
0
 62
50
  6
CONTINUOUS
 10
-1.3404825737265416
 20
4.8257372654155501
 11
-1.3404825737265416
 21
1.0053619302949062
  0
LINE
  8
0
 62
50
  6
CONTINUOUS
 10
-5.3619302949061662
 20
1.0053619302949062
 11
-5.3619302949061662
 21
4.8257372654155501
  0
LINE
  8
0
 62
50
  6
CONTINUOUS
 10
-5.3501672510236409
 20
1.0038991229249776
 11
-5.3512619688059946
 21
1.0053619302949062
  0
LINE
  8
0
 62
50
  6
CONTINUOUS
 10
-5.3619302949061662
 20
7.5067024128686333
 11
-5.3619302949061662
 21
8.0428954423592494
  0
LINE
  8
0
 62
50
  6
CONTINUOUS
 10
-1.3811436731097624
 20
1.0053619302949062
 11
-1.3586860843655717
 21
1.0053619302949062
  0
LINE
  8
0
 62
50
  6
CONTINUOUS
 10
-1.3586860843655717
 20
1.0053619302949062
 11
-1.3522456176090676
 21
1.0038991213158668
  0
LINE
  8
0
 62
50
  6
CONTINUOUS
 10
-5.3619302949061662
 20
1.0053619302949062
 11
-5.3512619700102215
 21
1.0053619302949062
  0
LINE
  8
0
 62
50
  6
CONTINUOUS
 10
-5.3437267842670293
 20
1.0053619302949062
 11
-5.3212691955229454
 21
1.0053619302949062
  0
LINE
  8
0
 62
50
  6
CONTINUOUS
 10
-5.3501672510236409
 20
1.0038991213158059
 11
-5.3437267842670293
 21
1.0053619302949062
  0
LINE
  8
0
 62
50
  6
CONTINUOUS
 10
-5.3154679675145573
 20
1.0036063790977552
 11
-5.3212691917585397
 21
1.0053619302949062
  0
LINE
  8
0
 62
50
  6
CONTINUOUS
 10
-1.381143676874214
 20
1.0053619302949062
 11
-1.3869449011181816
 21
1.0036063790977856
  0
LINE
  8
0
 62
50
  6
CONTINUOUS
 10
-5.2595724113455979
 20
1.0044844279497163
 11
-5.2689028274419822
 21
1.0053619302949062
  0
LINE
  8
0
 62
50
  6
CONTINUOUS
 10
-5.3079850378798739
 20
1.0053619302949062
 11
-5.3154679675145573
 21
1.0036063793390273
  0
LINE
  8
0
 62
50
  6
CONTINUOUS
 10
-1.4335100411907407
 20
1.0053619302949062
 11
-1.4428404572871252
 21
1.0044844279497163
  0
LINE
  8
0
 62
50
  6
CONTINUOUS
 10
-1.3869449011181816
 20
1.0036063793390273
 11
-1.3944278307528035
 21
1.0053619302949062
  0
LINE
  8
0
 62
50
  6
CONTINUOUS
 10
-1.4335100279036297
 20
1.0053619302949062
 11
-1.3944278371417296
 21
1.0053619302949062
  0
LINE
  8
0
 62
50
  6
CONTINUOUS
 10
-5.3619302949061662
 20
8.0428954423592494
 11
-1.3404825737265416
 21
8.0428954423592494
  0
LINE
  8
0
 62
50
  6
CONTINUOUS
 10
-1.5135697995935697
 20
1.0053619302949062
 11
-1.5171294495300862
 21
1.0044844279363054
  0
LINE
  8
0
 62
50
  6
CONTINUOUS
 10
-1.4428404572871252
 20
1.0044844281122611
 11
-1.4464001061617824
 21
1.0053619302949062
  0
LINE
  8
0
 62
50
  6
CONTINUOUS
 10
-5.185283419102622
 20
1.0044844279363054
 11
-5.1888430690391534
 21
1.0053619302949062
  0
LINE
  8
0
 62
50
  6
CONTINUOUS
 10
-5.256012762471002
 20
1.0053619302949062
 11
-5.2595724113455979
 21
1.0044844281122611
  0
LINE
  8
0
 62
50
  6
CONTINUOUS
 10
-5.3079850314910093
 20
1.0053619302949062
 11
-5.2689028407290479
 21
1.0053619302949062
  0
LINE
  8
0
 62
50
  6
CONTINUOUS
 10
-5.2560127563461316
 20
1.0053619302949062
 11
-5.1888430739993741
 21
1.0053619302949062
  0
LINE
  8
0
 62
50
  6
CONTINUOUS
 10
-5.0963261510605298
 20
1.0036063791655405
 11
-5.1082351670444117
 21
1.0053619302949062
  0
LINE
  8
0
 62
50
  6
CONTINUOUS
 10
-5.1704341480974358
 20
1.0053619302949062
 11
-5.185283419102622
 21
1.0044844280129603
  0
LINE
  8
0
 62
50
  6
CONTINUOUS
 10
-1.5941777015883576
 20
1.0053619302949062
 11
-1.6060867175722087
 21
1.0036063791655405
  0
LINE
  8
0
 62
50
  6
CONTINUOUS
 10
-1.5171294495300862
 20
1.0044844280129603
 11
-1.5319787205353486
 21
1.0053619302949062
  0
LINE
  8
0
 62
50
  6
CONTINUOUS
 10
-1.5135697946333491
 20
1.0053619302949062
 11
-1.4464001122866073
 21
1.0053619302949062
  0
LINE
  8
0
 62
50
  6
CONTINUOUS
 10
-4.9971612960921172
 20
1.0038991227770018
 11
-5.0155670749496988
 21
1.0053619302949062
  0
LINE
  8
0
 62
50
  6
CONTINUOUS
 10
-5.0797472059399444
 20
1.0053619302949062
 11
-5.0963261510605298
 21
1.0036063792164711
  0
LINE
  8
0
 62
50
  6
CONTINUOUS
 10
-1.6868457936827959
 20
1.0053619302949062
 11
-1.7052515725406217
 21
1.0038991227769714
  0
LINE
  8
0
 62
50
  6
CONTINUOUS
 10
-1.6060867175722087
 20
1.0036063792164711
 11
-1.6226656626929312
 21
1.0053619302949062
  0
LINE
  8
0
 62
50
  6
CONTINUOUS
 10
-4.9874454063698455
 20
1.0053619302949062
 11
-4.9971612960921172
 21
1.0038991227927594
  0
LINE
  8
0
 62
50
  6
CONTINUOUS
 10
-1.7052515725406217
 20
1.0038991227927594
 11
-1.7149674622628934
 21
1.0053619302949062
  0
LINE
  8
0
 62
5
  6
CONTINUOUS
 10
-1.8096514745358907
 20
8.0428954423592494
 11
-1.8096514745358907
 21
7.5067024128686333
  0
LINE
  8
0
 62
5
  6
CONTINUOUS
 10
-4.8927613941069366
 20
1.0053619302949062
 11
-4.8927613941069366
 21
4.8257372654155501
  0
LINE
  8
0
 62
5
  6
CONTINUOUS
 10
-4.8927613941069366
 20
7.5067024128686333
 11
-4.8927613941069366
 21
8.0428954423592494
  0
LINE
  8
0
 62
5
  6
CONTINUOUS
 10
-1.8096514745358907
 20
4.8257372654155501
 11
-1.8096514745358907
 21
1.0053619302949062
  0
LINE
  8
0
 62
50
  6
CONTINUOUS
 10
-1.5941776929412543
 20
1.0053619302949062
 11
-1.5319787428303431
 21
1.0053619302949062
  0
LINE
  8
0
 62
50
  6
CONTINUOUS
 10
-5.1704341258023652
 20
1.0053619302949062
 11
-5.1082351756914992
 21
1.0053619302949062
  0
LINE
  8
0
 62
50
  6
CONTINUOUS
 10
-5.0797471931764786
 20
1.0053619302949062
 11
-5.0155670914724348
 21
1.0053619302949062
  0
LINE
  8
0
 62
50
  6
CONTINUOUS
 10
-1.6868457771600751
 20
1.0053619302949062
 11
-1.6226656754561837
 21
1.0053619302949062
  0
LINE
  8
0
 62
50
  6
CONTINUOUS
 10
-4.9874453973148718
 20
1.0053619302949062
 11
-1.7149674713179586
 21
1.0053619302949062
  0
LINE
  8
0
 62
50
  6
CONTINUOUS
 10
-6.0991957104557644
 20
7.5067024128686333
 11
-0.60321715817694377
 21
7.5067024128686333
  0
LINE
  8
0
 62
50
  6
CONTINUOUS
 10
-6.0991957104557644
 20
4.8257372654155501
 11
-6.0991957104557644
 21
7.5067024128686333
  0
LINE
  8
0
 62
50
  6
CONTINUOUS
 10
-0.60321715817694377
 20
7.5067024128686333
 11
-0.60321715817694377
 21
4.8257372654155501
  0
LINE
  8
0
 62
50
  6
CONTINUOUS
 10
-6.0991957104557644
 20
4.8257372654155501
 11
-0.60321715817694377
 21
4.8257372654155501
  0
LINE
  8
0
 62
5
  6
CONTINUOUS
 10
-5.4289544235975526
 20
4.9597855227882039
 11
-5.4289544235975526
 21
7.3726541554959786
  0
LINE
  8
0
 62
5
  6
CONTINUOUS
 10
-1.2734584450452739
 20
7.3726541554959786
 11
-1.2734584450452739
 21
4.9597855227882039
  0
LINE
  8
0
 62
50
  6
CONTINUOUS
 10
-6.7024128686327078
 20
0
 11
-6.7024128686327078
 21
0.67024128686327078
  0
LINE
  8
0
 62
50
  6
CONTINUOUS
 10
-6.7024128686327078
 20
0.67024128686327078
 11
-5.6970509383378021
 21
0.67024128686327078
  0
LINE
  8
0
 62
50
  6
CONTINUOUS
 10
-5.6970509383378021
 20
0.67024128686327078
 11
-1.0053619302949215
 21
0.67024128686327078
  0
LINE
  8
0
 62
50
  6
CONTINUOUS
 10
-1.0053619302949215
 20
0.67024128686327078
 11
0
 21
0.67024128686327078
  0
LINE
  8
0
 62
50
  6
CONTINUOUS
 10
0
 20
0.67024128686327078
 11
0
 21
0
  0
LINE
  8
0
 62
50
  6
CONTINUOUS
 10
0
 20
0
 11
-6.7024128686327078
 21
0
  0
INSERT
  8
249
 62
5
  6
DASHDOT
  2
TELL_3
 10
-3.3512064343163539
 20
6.1662198391420917
 41
1.0
 42
1.0
 50
0.0
  0
LINE
  8
249
 62
5
  6
DASHDOT
 10
-3.3512064343163539
 20
-0.20107238605898126
 11
-3.3512064343163539
 21
1.2064343163538875
  0
INSERT
  8
249
 62
5
  6
DASHDOT
  2
TELL_4
 10
-3.3512064343163845
 20
2.4798927613941326
 41
1.0
 42
1.0
 50
0.0
  0
ENDBLK
  0
BLOCK
  8
249
 62
5
  6
DASHDOT
  2
TELL_6
 70
0
 10
-3.3512064343230565
 20
-13.069705093833781
  0
LINE
  8
249
 62
50
  6
CONTINUOUS
 10
-2.6172922252010693
 20
-13.103217158176944
 11
-2.6172922252010684
 21
-13.556735193412852
  0
ARC
  8
249
 62
50
  6
CONTINUOUS
 10
-2.8007707774798867
 20
-13.238941018766763
 40
0.36695710455764075
 50
227.88538956950413
 51
300
  0
ARC
  8
249
 62
50
  6
CONTINUOUS
 10
-3.3512064343163539
 20
-13.069705093833781
 40
0.53619302949061665
 50
235.41628176499029
 51
304.58371823500971
  0
ARC
  8
249
 62
50
  6
CONTINUOUS
 10
-3.9016420911528211
 20
-13.238941018766763
 40
0.36695710455764075
 50
240
 51
312.11461043049587
  0
LINE
  8
249
 62
50
  6
CONTINUOUS
 10
-4.0851206434316376
 20
-13.556735193412852
 11
-4.0851206434316385
 21
-13.103217158176944
  0
LINE
  8
249
 62
50
  6
CONTINUOUS
 10
-3.0468580101139318
 20
-13.511151581598533
 11
-3.0468580101167673
 21
-13.103217158176944
  0
LINE
  8
249
 62
50
  6
CONTINUOUS
 10
-3.6555548585187743
 20
-13.511151581598533
 11
-3.6555548585159405
 21
-13.103217158176944
  0
LINE
  8
249
 62
50
  6
CONTINUOUS
 10
-2.8007707774798858
 20
-13.605898123324398
 11
-3.9016420911528202
 21
-13.605898123324398
  0
LINE
  8
249
 62
5
  6
CONTINUOUS
 10
-2.9490616621983916
 20
-13.069705093833781
 11
-2.9490616621983952
 21
-10.462466487935652
  0
LINE
  8
249
 62
5
  6
CONTINUOUS
 10
-2.9490616621983952
 20
-10.462466487935652
 11
-3.0227882037533491
 21
-10.388739946380698
  0
LINE
  8
249
 62
5
  6
CONTINUOUS
 10
-3.0227882037533491
 20
-10.388739946380698
 11
-3.6796246648793667
 21
-10.388739946380698
  0
LINE
  8
249
 62
5
  6
CONTINUOUS
 10
-3.6796246648793667
 20
-10.388739946380698
 11
-3.7533512064343202
 21
-10.462466487935652
  0
LINE
  8
249
 62
5
  6
CONTINUOUS
 10
-3.7533512064343202
 20
-10.462466487935652
 11
-3.7533512064343166
 21
-13.069705093833781
  0
LINE
  8
249
 62
5
  6
CONTINUOUS
 10
-2.9490616621983952
 20
-10.462466487935652
 11
-3.7533512064343202
 21
-10.462466487935652
  0
LINE
  8
249
 62
50
  6
CONTINUOUS
 10
-4.0851206434316385
 20
-13.103217158176944
 11
-2.6172922252010693
 21
-13.103217158176944
  0
LINE
  8
249
 62
50
  6
CONTINUOUS
 10
-2.7144772117962468
 20
-13.103217158176944
 11
-2.7144772117962468
 21
-13.069705093833781
  0
LINE
  8
249
 62
50
  6
CONTINUOUS
 10
-3.9879356568364615
 20
-13.069705093833781
 11
-3.9879356568364615
 21
-13.103217158176944
  0
LINE
  8
249
 62
5
  6
CONTINUOUS
 10
-3.0227882037533491
 20
-10.388739946380698
 11
-3.0227882037533451
 21
-13.069705093833781
  0
LINE
  8
249
 62
5
  6
CONTINUOUS
 10
-3.6796246648793667
 20
-10.388739946380698
 11
-3.6796246648793627
 21
-13.069705093833781
  0
ENDBLK
  0
BLOCK
  8
0
 62
5
  6
DASHDOT
  2
TELL_5
 70
0
 10
-3.3512064343230565
 20
-9.7184986595174259
  0
LINE
  8
0
 62
50
  6
CONTINUOUS
 10
-6.7024128686327078
 20
-2.6809651474530831
 11
0
 21
-2.6809651474530831
  0
LINE
  8
0
 62
50
  6
CONTINUOUS
 10
0
 20
-2.6809651474530831
 11
0
 21
-16.756032171581769
  0
LINE
  8
0
 62
50
  6
CONTINUOUS
 10
0
 20
-16.756032171581769
 11
-6.7024128686327078
 21
-16.756032171581769
  0
LINE
  8
0
 62
50
  6
CONTINUOUS
 10
-6.7024128686327078
 20
-16.756032171581769
 11
-6.7024128686327078
 21
-2.6809651474530831
  0
LINE
  8
0
 62
50
  6
CONTINUOUS
 10
-2.8820375335120643
 20
-5.2278820375335124
 11
-2.8820375335120643
 21
-4.1554959785522794
  0
LINE
  8
0
 62
50
  6
CONTINUOUS
 10
-3.8203753351206435
 20
-4.1554959785522794
 11
-3.8203753351206435
 21
-5.2278820375335124
  0
LINE
  8
0
 62
50
  6
CONTINUOUS
 10
-3.8203753351206435
 20
-14.209115281501342
 11
-3.8203753351206435
 21
-15.281501340482574
  0
LINE
  8
0
 62
50
  6
CONTINUOUS
 10
-2.8820375335120643
 20
-15.281501340482574
 11
-2.8820375335120643
 21
-14.209115281501342
  0
LINE
  8
0
 62
50
  6
CONTINUOUS
 10
-1.2734584450385686
 20
-13.069705093833781
 11
-5.4289544235908478
 21
-13.069705093833781
  0
LINE
  8
0
 62
50
  6
CONTINUOUS
 10
-6.0991957104541035
 20
-12.399463806970511
 11
-6.0991957104557644
 21
-11.528150134048257
  0
LINE
  8
0
 62
50
  6
CONTINUOUS
 10
-6.0991957104557644
 20
-11.528150134048257
 11
-5.7640750670241285
 21
-11.528150134048257
  0
LINE
  8
0
 62
50
  6
CONTINUOUS
 10
-5.7640750670241285
 20
-11.528150134048257
 11
-5.7640750670224676
 21
-12.399463806970511
  0
LINE
  8
0
 62
50
  6
CONTINUOUS
 10
-5.4289544235908478
 20
-12.734584450402146
 11
-1.2734584450385686
 21
-12.734584450402146
  0
LINE
  8
0
 62
50
  6
CONTINUOUS
 10
-0.93833780160693325
 20
-12.399463806970511
 11
-0.93833780160857916
 21
-11.528150134048257
  0
LINE
  8
0
 62
50
  6
CONTINUOUS
 10
-0.93833780160857916
 20
-11.528150134048257
 11
-0.60321715817694377
 21
-11.528150134048257
  0
LINE
  8
0
 62
50
  6
CONTINUOUS
 10
-0.60321715817694377
 20
-11.528150134048257
 11
-0.60321715817529786
 21
-12.399463806970511
  0
LINE
  8
0
 62
50
  6
CONTINUOUS
 10
-1.3404825737248958
 20
-8.176943699731904
 11
-1.3404825737265416
 21
-11.260053619302949
  0
LINE
  8
0
 62
50
  6
CONTINUOUS
 10
-1.8096514745291854
 20
-11.729222520107239
 11
-4.8927613941002308
 21
-11.729222520107239
  0
LINE
  8
0
 62
50
  6
CONTINUOUS
 10
-5.3619302949045204
 20
-11.260053619302949
 11
-5.3619302949045204
 21
-8.176943699731904
  0
LINE
  8
0
 62
50
  6
CONTINUOUS
 10
-4.8927613941002308
 20
-7.7077747989276144
 11
-1.8096514745291854
 21
-7.7077747989276144
  0
LINE
  8
0
 62
50
  6
CONTINUOUS
 10
-5.093833780159212
 20
-8.176943699731904
 11
-5.0938337801608577
 21
-11.260053619302949
  0
LINE
  8
0
 62
50
  6
CONTINUOUS
 10
-4.8927613941002308
 20
-11.461126005361931
 11
-1.8096514745291854
 21
-11.461126005361931
  0
LINE
  8
0
 62
50
  6
CONTINUOUS
 10
-1.608579088470204
 20
-11.260053619302949
 11
-1.608579088470204
 21
-8.176943699731904
  0
LINE
  8
0
 62
50
  6
CONTINUOUS
 10
-1.8096514745291854
 20
-7.9758713136729229
 11
-4.8927613941002308
 21
-7.9758713136729229
  0
ARC
  8
0
 62
50
  6
CONTINUOUS
 10
-3.3512064343163539
 20
-5.2278820375335124
 40
0.46916890080428542
 50
180
 51
0
  0
ARC
  8
0
 62
50
  6
CONTINUOUS
 10
-3.3512064343163539
 20
-4.1554959785522634
 40
0.46916890080428375
 50
0
 51
180
  0
ARC
  8
0
 62
50
  6
CONTINUOUS
 10
-3.3512064343163539
 20
-15.281501340482574
 40
0.46916890080428375
 50
180
 51
0
  0
ARC
  8
0
 62
50
  6
CONTINUOUS
 10
-3.3512064343163539
 20
-14.209115281501342
 40
0.46916890080429285
 50
0
 51
180
  0
ARC
  8
0
 62
50
  6
CONTINUOUS
 10
-4.8927613941018766
 20
-11.260053619302949
 40
0.20107238605898126
 50
180
 51
270
  0
ARC
  8
0
 62
50
  6
CONTINUOUS
 10
-1.8096514745308312
 20
-11.260053619302949
 40
0.20107238605898126
 50
270
 51
0
  0
ARC
  8
0
 62
50
  6
CONTINUOUS
 10
-4.8927613941018766
 20
-8.176943699731904
 40
0.20107238605898126
 50
90
 51
180
  0
ARC
  8
0
 62
50
  6
CONTINUOUS
 10
-1.8096514745291701
 20
-8.176943699731904
 40
0.20107238605898126
 50
0
 51
90
  0
ARC
  8
0
 62
50
  6
CONTINUOUS
 10
-4.8927613941018766
 20
-11.260053619302949
 40
0.46916890080428958
 50
180
 51
270
  0
ARC
  8
0
 62
50
  6
CONTINUOUS
 10
-1.8096514745308312
 20
-11.260053619302949
 40
0.46916890080428958
 50
270
 51
0
  0
ARC
  8
0
 62
50
  6
CONTINUOUS
 10
-4.8927613941002308
 20
-8.176943699731904
 40
0.46916890080428958
 50
90
 51
180
  0
ARC
  8
0
 62
50
  6
CONTINUOUS
 10
-1.8096514745308312
 20
-8.176943699731904
 40
0.46916890080428958
 50
0
 51
90
  0
ARC
  8
0
 62
50
  6
CONTINUOUS
 10
-5.4289544235924936
 20
-12.399463806970511
 40
0.33512064343163539
 50
180
 51
270
  0
ARC
  8
0
 62
50
  6
CONTINUOUS
 10
-1.2734584450402144
 20
-12.399463806970511
 40
0.33512064343163539
 50
270
 51
0
  0
ARC
  8
0
 62
50
  6
CONTINUOUS
 10
-5.4289544235924936
 20
-12.399463806970511
 40
0.67024128686327078
 50
180
 51
270
  0
ARC
  8
0
 62
50
  6
CONTINUOUS
 10
-1.2734584450402144
 20
-12.399463806970511
 40
0.67024128686327078
 50
270
 51
0
  0
INSERT
  8
249
 62
5
  6
DASHDOT
  2
TELL_6
 10
-3.3512064343230565
 20
-13.069705093833781
 41
1.0
 42
1.0
 50
0.0
  0
LINE
  8
0
 62
5
  6
DASHDOT
 10
-4.0214477211796247
 20
-14.745308310991957
 11
-2.6809651474530831
 21
-14.745308310991957
  0
LINE
  8
0
 62
5
  6
DASHDOT
 10
-4.0214477211796247
 20
-4.6916890080428955
 11
-2.6809651474530831
 21
-4.6916890080428955
  0
LINE
  8
0
 62
5
  6
DASHDOT
 10
-3.3512064343163539
 20
-16.957104557640751
 11
-3.3512064343163539
 21
-2.479892761394102
  0
ENDBLK
  0
BLOCK
  8
0
 62
140
  6
CONTINUOUS
  2
TELL_7
 70
0
 10
9.7184986595174419
 20
0.83780160857908847
  0
LINE
  8
0
 62
50
  6
CONTINUOUS
 10
7.3726541554959946
 20
0.67024128686327078
 11
7.7077747989276295
 21
1.0053619302949062
  0
LINE
  8
0
 62
50
  6
CONTINUOUS
 10
7.7077747989276295
 20
1.0053619302949062
 11
7.7184431238236053
 21
1.0053619302949062
  0
LINE
  8
0
 62
50
  6
CONTINUOUS
 10
7.7184431250278323
 20
1.0053619302949062
 11
7.7195378428101558
 21
1.0038991229249776
  0
LINE
  8
0
 62
50
  6
CONTINUOUS
 10
7.7195378428101558
 20
1.0038991213158668
 11
7.7259783095665684
 21
1.0053619302949062
  0
LINE
  8
0
 62
50
  6
CONTINUOUS
 10
7.7259783095665684
 20
1.0053619302949062
 11
7.7484358983109116
 21
1.0053619302949062
  0
LINE
  8
0
 62
50
  6
CONTINUOUS
 10
7.7484359020753173
 20
1.0053619302949062
 11
7.7542371263192544
 21
1.0036063790977856
  0
LINE
  8
0
 62
50
  6
CONTINUOUS
 10
7.7542371263192544
 20
1.0036063793390577
 11
7.7617200559538002
 21
1.0053619302949062
  0
LINE
  8
0
 62
50
  6
CONTINUOUS
 10
7.7617200623426958
 20
1.0053619302949062
 11
7.8008022531046874
 21
1.0053619302949062
  0
LINE
  8
0
 62
50
  6
CONTINUOUS
 10
7.8008022663918135
 20
1.0053619302949062
 11
7.8101326824882129
 21
1.0044844279497163
  0
LINE
  8
0
 62
50
  6
CONTINUOUS
 10
7.8101326824882129
 20
1.0044844281122915
 11
7.8136923313627022
 21
1.0053619302949062
  0
LINE
  8
0
 62
50
  6
CONTINUOUS
 10
7.8136923374876952
 20
1.0053619302949062
 11
7.8808620198343604
 21
1.0053619302949062
  0
LINE
  8
0
 62
50
  6
CONTINUOUS
 10
7.8808620247947339
 20
1.0053619302949062
 11
7.8844216747311746
 21
1.0044844279363054
  0
LINE
  8
0
 62
50
  6
CONTINUOUS
 10
7.8844216747311746
 20
1.0044844280129603
 11
7.8992709457360704
 21
1.0053619302949062
  0
LINE
  8
0
 62
50
  6
CONTINUOUS
 10
7.8992709680316597
 20
1.0053619302949062
 11
7.9614699181423578
 21
1.0053619302949062
  0
LINE
  8
0
 62
50
  6
CONTINUOUS
 10
7.9614699267894151
 20
1.0053619302949062
 11
7.9733789427732971
 21
1.0036063791655405
  0
LINE
  8
0
 62
50
  6
CONTINUOUS
 10
7.9733789427732811
 20
1.0036063792164711
 11
7.9899578878939428
 21
1.0053619302949062
  0
LINE
  8
0
 62
50
  6
CONTINUOUS
 10
7.9899579006572408
 20
1.0053619302949062
 11
8.0541380023612241
 21
1.0053619302949062
  0
LINE
  8
0
 62
50
  6
CONTINUOUS
 10
8.0541380188839149
 20
1.0053619302949062
 11
8.0725437977416785
 21
1.0038991227769714
  0
LINE
  8
0
 62
50
  6
CONTINUOUS
 10
8.0725437977416945
 20
1.0038991227927594
 11
8.0822596874639512
 21
1.0053619302949062
  0
LINE
  8
0
 62
50
  6
CONTINUOUS
 10
8.0822596965190012
 20
1.0053619302949062
 11
11.354737622515914
 21
1.0053619302949062
  0
LINE
  8
0
 62
50
  6
CONTINUOUS
 10
11.354737631570964
 20
1.0053619302949062
 11
11.364453521293189
 21
1.0038991227927594
  0
LINE
  8
0
 62
50
  6
CONTINUOUS
 10
11.364453521293189
 20
1.0038991227769714
 11
11.382859300151001
 21
1.0053619302949062
  0
LINE
  8
0
 62
50
  6
CONTINUOUS
 10
11.382859316673569
 20
1.0053619302949062
 11
11.447039418377582
 21
1.0053619302949062
  0
LINE
  8
0
 62
50
  6
CONTINUOUS
 10
11.447039431141063
 20
1.0053619302949062
 11
11.463618376261602
 21
1.0036063792165015
  0
LINE
  8
0
 62
50
  6
CONTINUOUS
 10
11.463618376261602
 20
1.0036063791655101
 11
11.475527392245546
 21
1.0053619302949062
  0
LINE
  8
0
 62
50
  6
CONTINUOUS
 10
11.475527400892572
 20
1.0053619302949062
 11
11.53772635100321
 21
1.0053619302949062
  0
LINE
  8
0
 62
50
  6
CONTINUOUS
 10
11.53772637329863
 20
1.0053619302949062
 11
11.55257564430371
 21
1.0044844280129603
  0
LINE
  8
0
 62
50
  6
CONTINUOUS
 10
11.552575644303694
 20
1.0044844279363054
 11
11.55613529424021
 21
1.0053619302949062
  0
LINE
  8
0
 62
50
  6
CONTINUOUS
 10
11.556135299200507
 20
1.0053619302949062
 11
11.623304981547173
 21
1.0053619302949062
  0
LINE
  8
0
 62
50
  6
CONTINUOUS
 10
11.623304987672105
 20
1.0053619302949062
 11
11.626864636546671
 21
1.0044844281122305
  0
LINE
  8
0
 62
50
  6
CONTINUOUS
 10
11.626864636546671
 20
1.0044844279497163
 11
11.636195052643115
 21
1.0053619302949062
  0
LINE
  8
0
 62
50
  6
CONTINUOUS
 10
11.636195065930181
 20
1.0053619302949062
 11
11.675277256692096
 21
1.0053619302949062
  0
LINE
  8
0
 62
50
  6
CONTINUOUS
 10
11.675277263080963
 20
1.0053619302949062
 11
11.68276019271563
 21
1.0036063793389969
  0
LINE
  8
0
 62
50
  6
CONTINUOUS
 10
11.682760192715644
 20
1.0036063790977552
 11
11.688561416959612
 21
1.0053619302949062
  0
LINE
  8
0
 62
50
  6
CONTINUOUS
 10
11.688561420724033
 20
1.0053619302949062
 11
11.71101900946821
 21
1.0053619302949062
  0
LINE
  8
0
 62
50
  6
CONTINUOUS
 10
11.71101900946821
 20
1.0053619302949062
 11
11.717459476224729
 21
1.0038991213158364
  0
LINE
  8
0
 62
50
  6
CONTINUOUS
 10
11.717459476224729
 20
1.003899122925008
 11
11.718554194007051
 21
1.0053619302949062
  0
LINE
  8
0
 62
50
  6
CONTINUOUS
 10
11.718554195211293
 20
1.0053619302949062
 11
11.729222520107255
 21
1.0053619302949062
  0
LINE
  8
0
 62
50
  6
CONTINUOUS
 10
11.729222520107255
 20
1.0053619302949062
 11
12.06434316353889
 21
0.67024128686327078
  0
LINE
  8
0
 62
50
  6
CONTINUOUS
 10
12.06434316353889
 20
0.67024128686327078
 11
7.3726541554959946
 21
0.67024128686327078
  0
ENDBLK
  0
BLOCK
  8
249
 62
5
  6
DASHDOT
  2
TELL_8
 70
0
 10
13.069705093632708
 20
6.1662198391420917
  0
LINE
  8
249
 62
50
  6
CONTINUOUS
 10
13.10321715817696
 20
6.9001340482573763
 11
13.556735193412868
 21
6.9001340482573763
  0
ARC
  8
249
 62
50
  6
CONTINUOUS
 10
13.238941018766777
 20
6.7166554959785589
 40
0.36695710455764075
 50
317.88538956950413
 51
30
  0
ARC
  8
249
 62
50
  6
CONTINUOUS
 10
13.069705093833797
 20
6.1662198391420917
 40
0.53619302949061665
 50
325.41628176499029
 51
34.583718235009712
  0
ARC
  8
249
 62
50
  6
CONTINUOUS
 10
13.238941018766777
 20
5.6157841823056245
 40
0.36695710455764075
 50
330
 51
42.114610430495873
  0
LINE
  8
249
 62
50
  6
CONTINUOUS
 10
13.556735193412868
 20
5.4323056300268071
 11
13.10321715817696
 21
5.4323056300268071
  0
LINE
  8
249
 62
50
  6
CONTINUOUS
 10
13.511151581598549
 20
6.4705682633444974
 11
13.10321715817696
 21
6.4705682633416783
  0
LINE
  8
249
 62
50
  6
CONTINUOUS
 10
13.511151581598549
 20
5.8618714149396851
 11
13.10321715817696
 21
5.8618714149425051
  0
LINE
  8
249
 62
50
  6
CONTINUOUS
 10
13.605898123324412
 20
6.7166554959785589
 11
13.605898123324412
 21
5.6157841823056245
  0
LINE
  8
249
 62
5
  6
CONTINUOUS
 10
13.069705093833797
 20
6.568364611260054
 11
10.462466487935666
 21
6.568364611260046
  0
LINE
  8
249
 62
5
  6
CONTINUOUS
 10
10.462466487935666
 20
6.568364611260046
 11
10.388739946380714
 21
6.4946380697050774
  0
LINE
  8
249
 62
5
  6
CONTINUOUS
 10
10.388739946380714
 20
6.4946380697050774
 11
10.388739946380714
 21
5.8378016085790749
  0
LINE
  8
249
 62
5
  6
CONTINUOUS
 10
10.388739946380714
 20
5.8378016085790749
 11
10.462466487935666
 21
5.7640750670241214
  0
LINE
  8
249
 62
5
  6
CONTINUOUS
 10
10.462466487935666
 20
5.7640750670241214
 11
13.069705093833797
 21
5.7640750670241285
  0
LINE
  8
249
 62
5
  6
CONTINUOUS
 10
10.462466487935666
 20
6.568364611260046
 11
10.462466487935666
 21
5.7640750670241214
  0
LINE
  8
249
 62
50
  6
CONTINUOUS
 10
13.10321715817696
 20
5.4323056300268071
 11
13.10321715817696
 21
6.9001340482573763
  0
LINE
  8
249
 62
50
  6
CONTINUOUS
 10
13.10321715817696
 20
6.8029490616621988
 11
13.069705093833797
 21
6.8029490616621988
  0
LINE
  8
249
 62
50
  6
CONTINUOUS
 10
13.069705093833797
 20
5.5294906166219846
 11
13.10321715817696
 21
5.5294906166219846
  0
LINE
  8
249
 62
5
  6
CONTINUOUS
 10
10.388739946380714
 20
6.4946380697050774
 11
13.069705093833797
 21
6.4946380697051005
  0
LINE
  8
249
 62
5
  6
CONTINUOUS
 10
10.388739946380714
 20
5.8378016085790749
 11
13.069705093833797
 21
5.8378016085790829
  0
LINE
  8
249
 62
5
  6
DASHDOT
 10
10.254691689008059
 20
6.1662198391420837
 11
13.739946380697067
 21
6.1662198391420917
  0
ENDBLK
  0
BLOCK
  8
249
 62
5
  6
DASHDOT
  2
TELL_9
 70
0
 10
9.7184986595174578
 20
2.4798927613941326
  0
CIRCLE
  8
249
 62
50
  6
CONTINUOUS
 10
9.7184986595174578
 20
2.4798927613941326
 40
0.33019436997319035
  0
ARC
  8
249
 62
5
  6
CONTINUOUS
 10
9.7184986595174578
 20
2.4798927613941326
 40
0.40214477211796251
 50
175.00000000000003
 51
90
  0
LINE
  8
249
 62
5
  6
DASHDOT
 10
9.7184986595174578
 20
3.0160857908847492
 11
9.7184986595174578
 21
1.9436997319035159
  0
LINE
  8
249
 62
5
  6
DASHDOT
 10
9.1823056300268409
 20
2.4798927613941326
 11
10.254691689008073
 21
2.4798927613941326
  0
ENDBLK
  0
BLOCK
  8
0
 62
5
  6
DASHDOT
  2
TELL_10
 70
0
 10
9.7184986595174578
 20
6.1662198391420606
  0
CIRCLE
  8
0
 62
50
  6
CONTINUOUS
 10
9.7184986595174578
 20
6.1662198391420606
 40
0.33019436997319035
  0
ARC
  8
0
 62
5
  6
CONTINUOUS
 10
9.7184986595174578
 20
6.1662198391420606
 40
0.40214477211796251
 50
175.00000000000003
 51
90
  0
LINE
  8
0
 62
5
  6
DASHDOT
 10
9.7184986595174578
 20
6.7024128686326776
 11
9.7184986595174578
 21
5.6300268096514445
  0
LINE
  8
0
 62
5
  6
DASHDOT
 10
9.1823056300268409
 20
6.1662198391420606
 11
10.254691689008073
 21
6.1662198391420606
  0
ENDBLK
  0
BLOCK
  8
0
 62
50
  6
CONTINUOUS
  2
3_50_CS
 70
0
 10
9.7184986593163547
 20
0
  0
INSERT
  8
0
 62
140
  6
CONTINUOUS
  2
TELL_7
 10
9.7184986595174419
 20
0.83780160857908847
 41
1.0
 42
1.0
 50
0.0
  0
LINE
  8
0
 62
50
  6
CONTINUOUS
 10
7.3726541554959946
 20
0.67024128686327078
 11
7.7077747989276295
 21
1.0053619302949062
  0
LINE
  8
0
 62
50
  6
CONTINUOUS
 10
11.729222520107255
 20
1.0053619302949062
 11
12.06434316353889
 21
0.67024128686327078
  0
LINE
  8
0
 62
50
  6
CONTINUOUS
 10
7.7077747989276295
 20
8.0428954423592494
 11
11.729222520107255
 21
8.0428954423592494
  0
LINE
  8
0
 62
50
  6
CONTINUOUS
 10
7.7077747989276295
 20
1.0053619302949062
 11
7.7077747989276295
 21
8.0428954423592494
  0
LINE
  8
0
 62
50
  6
CONTINUOUS
 10
7.7195378428101558
 20
1.0038991229249776
 11
7.7184431250278323
 21
1.0053619302949062
  0
LINE
  8
0
 62
50
  6
CONTINUOUS
 10
11.729222520107255
 20
8.0428954423592494
 11
11.729222520107255
 21
7.5067024128686333
  0
LINE
  8
0
 62
50
  6
CONTINUOUS
 10
11.718554194007051
 20
1.0053619302949062
 11
11.717459476224729
 21
1.003899122925008
  0
LINE
  8
0
 62
50
  6
CONTINUOUS
 10
11.729222520107255
 20
4.8257372654155501
 11
11.729222520107255
 21
1.0053619302949062
  0
LINE
  8
0
 62
50
  6
CONTINUOUS
 10
11.718554195211293
 20
1.0053619302949062
 11
11.729222520107255
 21
1.0053619302949062
  0
LINE
  8
0
 62
50
  6
CONTINUOUS
 10
11.71101900946821
 20
1.0053619302949062
 11
11.717459476224729
 21
1.0038991213158364
  0
LINE
  8
0
 62
50
  6
CONTINUOUS
 10
7.7077747989276295
 20
1.0053619302949062
 11
7.7184431238236053
 21
1.0053619302949062
  0
LINE
  8
0
 62
50
  6
CONTINUOUS
 10
7.7259783095665684
 20
1.0053619302949062
 11
7.7484358983109116
 21
1.0053619302949062
  0
LINE
  8
0
 62
50
  6
CONTINUOUS
 10
7.7195378428101558
 20
1.0038991213158668
 11
7.7259783095665684
 21
1.0053619302949062
  0
LINE
  8
0
 62
50
  6
CONTINUOUS
 10
7.7542371263192544
 20
1.0036063790977856
 11
7.7484359020753173
 21
1.0053619302949062
  0
LINE
  8
0
 62
50
  6
CONTINUOUS
 10
11.688561416959612
 20
1.0053619302949062
 11
11.682760192715644
 21
1.0036063790977552
  0
LINE
  8
0
 62
50
  6
CONTINUOUS
 10
7.7617200559538002
 20
1.0053619302949062
 11
7.7542371263192544
 21
1.0036063793390577
  0
LINE
  8
0
 62
50
  6
CONTINUOUS
 10
7.8101326824882129
 20
1.0044844279497163
 11
7.8008022663918135
 21
1.0053619302949062
  0
LINE
  8
0
 62
50
  6
CONTINUOUS
 10
11.636195052643115
 20
1.0053619302949062
 11
11.626864636546671
 21
1.0044844279497163
  0
LINE
  8
0
 62
50
  6
CONTINUOUS
 10
11.68276019271563
 20
1.0036063793389969
 11
11.675277263080963
 21
1.0053619302949062
  0
LINE
  8
0
 62
50
  6
CONTINUOUS
 10
11.636195065930181
 20
1.0053619302949062
 11
11.675277256692096
 21
1.0053619302949062
  0
LINE
  8
0
 62
50
  6
CONTINUOUS
 10
11.688561420724033
 20
1.0053619302949062
 11
11.71101900946821
 21
1.0053619302949062
  0
LINE
  8
0
 62
50
  6
CONTINUOUS
 10
7.8136923313627022
 20
1.0053619302949062
 11
7.8101326824882129
 21
1.0044844281122915
  0
LINE
  8
0
 62
50
  6
CONTINUOUS
 10
7.8844216747311746
 20
1.0044844279363054
 11
7.8808620247947339
 21
1.0053619302949062
  0
LINE
  8
0
 62
50
  6
CONTINUOUS
 10
11.626864636546671
 20
1.0044844281122305
 11
11.623304987672105
 21
1.0053619302949062
  0
LINE
  8
0
 62
50
  6
CONTINUOUS
 10
11.55613529424021
 20
1.0053619302949062
 11
11.552575644303694
 21
1.0044844279363054
  0
LINE
  8
0
 62
50
  6
CONTINUOUS
 10
7.7617200623426958
 20
1.0053619302949062
 11
7.8008022531046874
 21
1.0053619302949062
  0
LINE
  8
0
 62
50
  6
CONTINUOUS
 10
7.8992709457360704
 20
1.0053619302949062
 11
7.8844216747311746
 21
1.0044844280129603
  0
LINE
  8
0
 62
50
  6
CONTINUOUS
 10
7.9733789427732971
 20
1.0036063791655405
 11
7.9614699267894151
 21
1.0053619302949062
  0
LINE
  8
0
 62
50
  6
CONTINUOUS
 10
11.475527392245546
 20
1.0053619302949062
 11
11.463618376261602
 21
1.0036063791655101
  0
LINE
  8
0
 62
50
  6
CONTINUOUS
 10
11.55257564430371
 20
1.0044844280129603
 11
11.53772637329863
 21
1.0053619302949062
  0
LINE
  8
0
 62
50
  6
CONTINUOUS
 10
11.556135299200507
 20
1.0053619302949062
 11
11.623304981547173
 21
1.0053619302949062
  0
LINE
  8
0
 62
50
  6
CONTINUOUS
 10
7.8136923374876952
 20
1.0053619302949062
 11
7.8808620198343604
 21
1.0053619302949062
  0
LINE
  8
0
 62
50
  6
CONTINUOUS
 10
7.9899578878939428
 20
1.0053619302949062
 11
7.9733789427732811
 21
1.0036063792164711
  0
LINE
  8
0
 62
50
  6
CONTINUOUS
 10
8.0725437977416785
 20
1.0038991227769714
 11
8.0541380188839149
 21
1.0053619302949062
  0
LINE
  8
0
 62
50
  6
CONTINUOUS
 10
11.382859300151001
 20
1.0053619302949062
 11
11.364453521293189
 21
1.0038991227769714
  0
LINE
  8
0
 62
50
  6
CONTINUOUS
 10
11.463618376261602
 20
1.0036063792165015
 11
11.447039431141063
 21
1.0053619302949062
  0
LINE
  8
0
 62
50
  6
CONTINUOUS
 10
8.0822596874639512
 20
1.0053619302949062
 11
8.0725437977416945
 21
1.0038991227927594
  0
LINE
  8
0
 62
50
  6
CONTINUOUS
 10
11.364453521293189
 20
1.0038991227927594
 11
11.354737631570964
 21
1.0053619302949062
  0
LINE
  8
0
 62
5
  6
CONTINUOUS
 10
11.260053619096881
 20
8.0428954423592494
 11
11.260053619096881
 21
1.0053619302949062
  0
LINE
  8
0
 62
5
  6
CONTINUOUS
 10
8.1769436995258342
 20
1.0053619302949062
 11
8.1769436995258342
 21
8.0428954423592494
  0
LINE
  8
0
 62
50
  6
CONTINUOUS
 10
11.475527400892572
 20
1.0053619302949062
 11
11.53772635100321
 21
1.0053619302949062
  0
LINE
  8
0
 62
50
  6
CONTINUOUS
 10
7.8992709680316597
 20
1.0053619302949062
 11
7.9614699181423578
 21
1.0053619302949062
  0
LINE
  8
0
 62
50
  6
CONTINUOUS
 10
7.9899579006572408
 20
1.0053619302949062
 11
8.0541380023612241
 21
1.0053619302949062
  0
LINE
  8
0
 62
50
  6
CONTINUOUS
 10
13.069705093833797
 20
7.5067024128686333
 11
13.069705093833797
 21
4.8257372654155501
  0
LINE
  8
0
 62
50
  6
CONTINUOUS
 10
11.382859316673569
 20
1.0053619302949062
 11
11.447039418377582
 21
1.0053619302949062
  0
LINE
  8
0
 62
50
  6
CONTINUOUS
 10
8.0822596965190012
 20
1.0053619302949062
 11
11.354737622515914
 21
1.0053619302949062
  0
LINE
  8
0
 62
50
  6
CONTINUOUS
 10
11.528150134048273
 20
4.8257372654155501
 11
13.069705093833797
 21
4.8257372654155501
  0
LINE
  8
0
 62
50
  6
CONTINUOUS
 10
11.528150134048273
 20
7.5067024128686333
 11
13.069705093833797
 21
7.5067024128686333
  0
LINE
  8
0
 62
5
  6
CONTINUOUS
 10
12.399463806764441
 20
7.3726541554959786
 11
12.399463806764441
 21
4.9597855227882039
  0
LINE
  8
0
 62
50
  6
CONTINUOUS
 10
11.528150134048273
 20
4.8257372654155501
 11
11.528150134048273
 21
7.5067024128686333
  0
LINE
  8
0
 62
50
  6
CONTINUOUS
 10
2.6809651474530987
 20
0
 11
2.6809651474530987
 21
0.67024128686327078
  0
LINE
  8
0
 62
50
  6
CONTINUOUS
 10
2.6809651474530987
 20
0.67024128686327078
 11
16.756032171581786
 21
0.67024128686327078
  0
LINE
  8
0
 62
50
  6
CONTINUOUS
 10
16.756032171581786
 20
0.67024128686327078
 11
16.756032171581786
 21
0
  0
LINE
  8
0
 62
50
  6
CONTINUOUS
 10
16.756032171581786
 20
0
 11
2.6809651474530987
 21
0
  0
INSERT
  8
249
 62
5
  6
DASHDOT
  2
TELL_8
 10
13.069705093632708
 20
6.1662198391420917
 41
1.0
 42
1.0
 50
0.0
  0
LINE
  8
0
 62
5
  6
DASHDOT
 10
4.6916890080428955
 20
-0.20107238605898126
 11
4.6916890080428955
 21
0.87131367292225204
  0
LINE
  8
0
 62
5
  6
DASHDOT
 10
14.745308310991957
 20
-0.20107238605898126
 11
14.745308310991957
 21
0.87131367292225204
  0
INSERT
  8
249
 62
5
  6
DASHDOT
  2
TELL_9
 10
9.7184986595174578
 20
2.4798927613941326
 41
1.0
 42
1.0
 50
0.0
  0
INSERT
  8
0
 62
5
  6
DASHDOT
  2
TELL_10
 10
9.7184986595174578
 20
6.1662198391420606
 41
1.0
 42
1.0
 50
0.0
  0
ENDBLK
  0
ENDSEC
  0
SECTION
  2
ENTITIES
  0
INSERT
  8
0
 62
50
  6
CONTINUOUS
  2
TELL_1
 10
-3.3512064343230565
 20
0
 41
1.0
 42
1.0
 50
0.0
  0
INSERT
  8
0
 62
5
  6
DASHDOT
  2
TELL_5
 10
-3.3512064343230565
 20
-9.7184986595174259
 41
1.0
 42
1.0
 50
0.0
  0
INSERT
  8
0
 62
50
  6
CONTINUOUS
  2
3_50_CS
 10
9.7184986593163547
 20
0
 41
1.0
 42
1.0
 50
0.0
  0
ENDSEC
  0
EOF
