  0
SECTION
  2
HEADER
  9
$ACADVER
  1
AC1009
  9
$EXTMIN
 10
-5.3956834532374103
 20
-19.154676258992804
  9
$EXTMAX
 10
18.884892086330936
 20
5.8453237410071939
  9
$TEXTSTYLE
  7
STANDARD
  9
$DIMLFAC
 40
1
  9
$REGENMODE
 70
1
  9
$DRAGMODE
 70
2
  9
$DIMASO
 70
1
  9
$LTSCALE
 40
1.0000000000
  0
ENDSEC
  0
SECTION
  2
TABLES
  0
TABLE
  2
LTYPE
 70
2
  0
LTYPE
  2
CONTINUOUS
 70
64
  3
CONTINUOUS
 72
65
 73
0
 40
0.0000000000
  0
LTYPE
  2
DASHDOT
 70
64
  3
DASHDOT
 72
65
 73
4
 40
1.0000000000
 49
0.5000000000
 49
-0.2500000000
 49
0.0000000000
 49
-0.2500000000
  0
ENDTAB
  0
TABLE
  2
LAYER
 70
2
  0
LAYER
  2
0
 70
0
 62
2
  6
CONTINUOUS
  0
LAYER
  2
249
 70
0
 62
2
  6
CONTINUOUS
  0
ENDTAB
  0
TABLE
  2
STYLE
 70
0
  0
STYLE
  2
Standard
 70
0
 40
0
 41
1
 50
0
 71
0
 42
2.5
  3
txt
  4

  0
ENDTAB
  0
ENDSEC
  0
SECTION
  2
BLOCKS
  0
BLOCK
  8
0
 62
140
  6
CONTINUOUS
  2
TELL_2
 70
0
 10
-2.6978417266187051
 20
0.67446043165467628
  0
LINE
  8
0
 62
50
  6
CONTINUOUS
 10
-1.4388489208633093
 20
0.89928057553956831
 11
-0.98920863309352514
 21
0.44964028776978415
  0
LINE
  8
0
 62
50
  6
CONTINUOUS
 10
-0.98920863309352514
 20
0.44964028776978415
 11
-4.4064748201438846
 21
0.44964028776978415
  0
LINE
  8
0
 62
50
  6
CONTINUOUS
 10
-4.4064748201438846
 20
0.44964028776978415
 11
-3.9568345323741005
 21
0.89928057553956831
  0
LINE
  8
0
 62
50
  6
CONTINUOUS
 10
-3.9568345323741005
 20
0.89928057553956831
 11
-3.9369303095162667
 21
0.89928057553956831
  0
LINE
  8
0
 62
50
  6
CONTINUOUS
 10
-3.9369303078284261
 20
0.89928057553956831
 11
-3.9362984350300239
 21
0.89850780045127532
  0
LINE
  8
0
 62
50
  6
CONTINUOUS
 10
-3.9362984350300239
 20
0.89850780052435386
 11
-3.933486921407285
 21
0.89928057553956831
  0
LINE
  8
0
 62
50
  6
CONTINUOUS
 10
-3.9334869130029242
 20
0.89928057553956831
 11
-3.8807401184835162
 21
0.89928057553956831
  0
LINE
  8
0
 62
50
  6
CONTINUOUS
 10
-3.880740113993622
 20
0.89928057553956831
 11
-3.8778165776582529
 21
0.89825004461957392
  0
LINE
  8
0
 62
50
  6
CONTINUOUS
 10
-3.8778165776582529
 20
0.89825004484005688
 11
-3.8734411976922476
 21
0.89928057553956831
  0
LINE
  8
0
 62
50
  6
CONTINUOUS
 10
-3.8734411895437226
 20
0.89928057553956831
 11
-3.7945000319168125
 21
0.89928057553956831
  0
LINE
  8
0
 62
50
  6
CONTINUOUS
 10
-3.7945000226646464
 20
0.89928057553956831
 11
-3.7902922929042555
 21
0.89850780026878341
  0
LINE
  8
0
 62
50
  6
CONTINUOUS
 10
-3.7902922929042555
 20
0.89850780034118716
 11
-3.7871156538092654
 21
0.89928057553956831
  0
LINE
  8
0
 62
50
  6
CONTINUOUS
 10
-3.7871156460733051
 20
0.89928057553956831
 11
-1.6085678071640637
 21
0.89928057553956831
  0
LINE
  8
0
 62
50
  6
CONTINUOUS
 10
-1.6085677994281242
 20
0.89928057553956831
 11
-1.6053911603331543
 21
0.89850780034116673
  0
LINE
  8
0
 62
50
  6
CONTINUOUS
 10
-1.6053911603331543
 20
0.89850780026878341
 11
-1.6011834305727837
 21
0.89928057553956831
  0
LINE
  8
0
 62
50
  6
CONTINUOUS
 10
-1.6011834213206584
 20
0.89928057553956831
 11
-1.5222422636937278
 21
0.89928057553956831
  0
LINE
  8
0
 62
50
  6
CONTINUOUS
 10
-1.5222422555452442
 20
0.89928057553956831
 11
-1.5178668755791569
 21
0.89825004484005688
  0
LINE
  8
0
 62
50
  6
CONTINUOUS
 10
-1.5178668755791569
 20
0.89825004461957392
 11
-1.5149433392437879
 21
0.89928057553956831
  0
LINE
  8
0
 62
50
  6
CONTINUOUS
 10
-1.5149433347538734
 20
0.89928057553956831
 11
-1.4621965402344241
 21
0.89928057553956831
  0
LINE
  8
0
 62
50
  6
CONTINUOUS
 10
-1.4621965318301451
 20
0.89928057553956831
 11
-1.4593850182073862
 21
0.89850780052437429
  0
LINE
  8
0
 62
50
  6
CONTINUOUS
 10
-1.4593850182073862
 20
0.89850780045127532
 11
-1.4587531454089839
 21
0.89928057553956831
  0
LINE
  8
0
 62
50
  6
CONTINUOUS
 10
-1.4587531437211636
 20
0.89928057553956831
 11
-1.4388489208633093
 21
0.89928057553956831
  0
ENDBLK
  0
BLOCK
  8
0
 62
5
  6
DASHDOT
  2
TELL_3
 70
0
 10
-2.6978417266187051
 20
4.4964028776978413
  0
LINE
  8
0
 62
50
  6
CONTINUOUS
 10
-2.6978417266187051
 20
5.379042677717961
 11
-3.4622302158273381
 21
4.9377227777078909
  0
LINE
  8
0
 62
50
  6
CONTINUOUS
 10
-3.4622302158273381
 20
4.9377227777078909
 11
-3.4622302158273381
 21
4.0550829776877917
  0
LINE
  8
0
 62
50
  6
CONTINUOUS
 10
-3.4622302158273381
 20
4.0550829776877917
 11
-2.6978417266187051
 21
3.6137630776777221
  0
LINE
  8
0
 62
50
  6
CONTINUOUS
 10
-2.6978417266187051
 20
3.6137630776777221
 11
-1.9334532374100719
 21
4.0550829776877917
  0
LINE
  8
0
 62
50
  6
CONTINUOUS
 10
-1.9334532374100719
 20
4.0550829776877917
 11
-1.9334532374100719
 21
4.9377227777078909
  0
LINE
  8
0
 62
50
  6
CONTINUOUS
 10
-1.9334532374100719
 20
4.9377227777078909
 11
-2.6978417266187051
 21
5.379042677717961
  0
CIRCLE
  8
0
 62
50
  6
CONTINUOUS
 10
-2.6978417266187051
 20
4.4964028776978413
 40
0.76438848920863323
  0
LINE
  8
0
 62
5
  6
DASHDOT
 10
-2.6978417266187051
 20
3.4339069625698087
 11
-2.6978417266187051
 21
5.5588987928258744
  0
LINE
  8
0
 62
5
  6
DASHDOT
 10
-3.7603376417467378
 20
4.4964028776978413
 11
-1.635345811490672
 21
4.4964028776978413
  0
ENDBLK
  0
BLOCK
  8
0
 62
50
  6
CONTINUOUS
  2
TELL_1
 70
0
 10
-2.6978417266187051
 20
0
  0
INSERT
  8
0
 62
140
  6
CONTINUOUS
  2
TELL_2
 10
-2.6978417266187051
 20
0.67446043165467628
 41
1.0
 42
1.0
 50
0.0
  0
LINE
  8
0
 62
50
  6
CONTINUOUS
 10
-1.4388489208633093
 20
0.89928057553956831
 11
-0.98920863309352514
 21
0.44964028776978415
  0
LINE
  8
0
 62
50
  6
CONTINUOUS
 10
-4.4064748201438846
 20
0.44964028776978415
 11
-3.9568345323741005
 21
0.89928057553956831
  0
LINE
  8
0
 62
50
  6
CONTINUOUS
 10
-3.9362984350300239
 20
0.89850780045127532
 11
-3.9369303078284261
 21
0.89928057553956831
  0
LINE
  8
0
 62
50
  6
CONTINUOUS
 10
-3.9568345323741005
 20
0.89928057553956831
 11
-3.9568345323741005
 21
3.2374100719424459
  0
LINE
  8
0
 62
50
  6
CONTINUOUS
 10
-3.9568345323741005
 20
5.7553956834532372
 11
-3.9568345323741005
 21
5.8453237410071939
  0
LINE
  8
0
 62
50
  6
CONTINUOUS
 10
-1.4587531454089839
 20
0.89928057553956831
 11
-1.4593850182073862
 21
0.89850780045127532
  0
LINE
  8
0
 62
50
  6
CONTINUOUS
 10
-1.4587531437211636
 20
0.89928057553956831
 11
-1.4388489208633093
 21
0.89928057553956831
  0
LINE
  8
0
 62
50
  6
CONTINUOUS
 10
-3.9568345323741005
 20
0.89928057553956831
 11
-3.9369303095162667
 21
0.89928057553956831
  0
LINE
  8
0
 62
50
  6
CONTINUOUS
 10
-3.8778165776582529
 20
0.89825004461957392
 11
-3.880740113993622
 21
0.89928057553956831
  0
LINE
  8
0
 62
50
  6
CONTINUOUS
 10
-3.933486921407285
 20
0.89928057553956831
 11
-3.9362984350300239
 21
0.89850780052435386
  0
LINE
  8
0
 62
50
  6
CONTINUOUS
 10
-1.5149433392437879
 20
0.89928057553956831
 11
-1.5178668755791569
 21
0.89825004461957392
  0
LINE
  8
0
 62
50
  6
CONTINUOUS
 10
-1.4593850182073862
 20
0.89850780052437429
 11
-1.4621965318301451
 21
0.89928057553956831
  0
LINE
  8
0
 62
50
  6
CONTINUOUS
 10
-3.9568345323741005
 20
5.8453237410071939
 11
-1.4388489208633093
 21
5.8453237410071939
  0
LINE
  8
0
 62
50
  6
CONTINUOUS
 10
-3.7902922929042555
 20
0.89850780026878341
 11
-3.7945000226646464
 21
0.89928057553956831
  0
LINE
  8
0
 62
50
  6
CONTINUOUS
 10
-3.8734411976922476
 20
0.89928057553956831
 11
-3.8778165776582529
 21
0.89825004484005688
  0
LINE
  8
0
 62
50
  6
CONTINUOUS
 10
-1.6011834305727837
 20
0.89928057553956831
 11
-1.6053911603331543
 21
0.89850780026878341
  0
LINE
  8
0
 62
50
  6
CONTINUOUS
 10
-1.5178668755791569
 20
0.89825004484005688
 11
-1.5222422555452442
 21
0.89928057553956831
  0
LINE
  8
0
 62
50
  6
CONTINUOUS
 10
-3.7871156538092654
 20
0.89928057553956831
 11
-3.7902922929042555
 21
0.89850780034118716
  0
LINE
  8
0
 62
50
  6
CONTINUOUS
 10
-1.6053911603331543
 20
0.89850780034116673
 11
-1.6085677994281242
 21
0.89928057553956831
  0
LINE
  8
0
 62
50
  6
CONTINUOUS
 10
-1.5149433347538734
 20
0.89928057553956831
 11
-1.4621965402344241
 21
0.89928057553956831
  0
LINE
  8
0
 62
50
  6
CONTINUOUS
 10
-3.9334869130029242
 20
0.89928057553956831
 11
-3.8807401184835162
 21
0.89928057553956831
  0
LINE
  8
0
 62
5
  6
CONTINUOUS
 10
-3.6870503597122299
 20
0.89928057553956831
 11
-3.6870503597122299
 21
3.2374100719424459
  0
LINE
  8
0
 62
5
  6
CONTINUOUS
 10
-1.7086330935251799
 20
3.2374100719424459
 11
-1.7086330935251799
 21
0.89928057553956831
  0
LINE
  8
0
 62
50
  6
CONTINUOUS
 10
-1.6011834213206584
 20
0.89928057553956831
 11
-1.5222422636937278
 21
0.89928057553956831
  0
LINE
  8
0
 62
50
  6
CONTINUOUS
 10
-3.8734411895437226
 20
0.89928057553956831
 11
-3.7945000319168125
 21
0.89928057553956831
  0
LINE
  8
0
 62
50
  6
CONTINUOUS
 10
-4.5413669064748197
 20
3.2374100719424459
 11
-4.5413669064748197
 21
5.7553956834532372
  0
LINE
  8
0
 62
50
  6
CONTINUOUS
 10
-4.5413669064748197
 20
5.7553956834532372
 11
-0.85431654676258995
 21
5.7553956834532372
  0
LINE
  8
0
 62
50
  6
CONTINUOUS
 10
-0.85431654676258995
 20
5.7553956834532372
 11
-0.85431654676258995
 21
3.2374100719424459
  0
LINE
  8
0
 62
50
  6
CONTINUOUS
 10
-4.5413669064748197
 20
3.2374100719424459
 11
-0.85431654676258995
 21
3.2374100719424459
  0
LINE
  8
0
 62
50
  6
CONTINUOUS
 10
-3.7871156460733051
 20
0.89928057553956831
 11
-1.6085678071640637
 21
0.89928057553956831
  0
LINE
  8
0
 62
50
  6
CONTINUOUS
 10
-1.4388489208633093
 20
0.89928057553956831
 11
-1.4388489208633093
 21
3.2374100719424459
  0
LINE
  8
0
 62
50
  6
CONTINUOUS
 10
-1.4388489208633093
 20
5.7553956834532372
 11
-1.4388489208633093
 21
5.8453237410071939
  0
LINE
  8
0
 62
50
  6
CONTINUOUS
 10
0
 20
0.44964028776978415
 11
0
 21
0
  0
LINE
  8
0
 62
50
  6
CONTINUOUS
 10
-5.3956834532374103
 20
0
 11
-5.3956834532374103
 21
0.44964028776978415
  0
LINE
  8
0
 62
50
  6
CONTINUOUS
 10
-5.3956834532374103
 20
0.44964028776978415
 11
-4.4064748201438846
 21
0.44964028776978415
  0
LINE
  8
0
 62
50
  6
CONTINUOUS
 10
-4.4064748201438846
 20
0.44964028776978415
 11
-0.98920863309352514
 21
0.44964028776978415
  0
LINE
  8
0
 62
50
  6
CONTINUOUS
 10
-0.98920863309352514
 20
0.44964028776978415
 11
0
 21
0.44964028776978415
  0
LINE
  8
0
 62
50
  6
CONTINUOUS
 10
-5.3956834532374103
 20
0
 11
0
 21
0
  0
LINE
  8
0
 62
50
  6
CONTINUOUS
 10
-4.4964028776978413
 20
0
 11
-4.4964028776978413
 21
0.44964028776978415
  0
LINE
  8
0
 62
50
  6
CONTINUOUS
 10
-0.89928057553956831
 20
0.44964028776978415
 11
-0.89928057553956831
 21
0
  0
LINE
  8
0
 62
5
  6
DASHDOT
 10
-2.6978417266187051
 20
-0.26978417266187049
 11
-2.6978417266187051
 21
1.1690647482014387
  0
INSERT
  8
0
 62
5
  6
DASHDOT
  2
TELL_3
 10
-2.6978417266187051
 20
4.4964028776978413
 41
1.0
 42
1.0
 50
0.0
  0
LINE
  8
0
 62
5
  6
CONTINUOUS
 10
-4.0017985611510793
 20
3.372302158273381
 11
-4.0017985611510793
 21
5.6205035971223021
  0
LINE
  8
0
 62
5
  6
CONTINUOUS
 10
-1.3938848920863309
 20
3.372302158273381
 11
-1.3938848920863309
 21
5.6205035971223021
  0
ENDBLK
  0
BLOCK
  8
0
 62
5
  6
DASHDOT
  2
TELL_5
 70
0
 10
-2.6978417266187051
 20
-14.613309352517986
  0
LINE
  8
0
 62
50
  6
CONTINUOUS
 10
-1.8165467625899321
 20
-14.658273381294963
 11
-1.8165467625899308
 21
-15.183770186919398
  0
ARC
  8
0
 62
50
  6
CONTINUOUS
 10
-2.0368705035971097
 20
-14.802158273381286
 40
0.44064748201438853
 50
227.54026094004348
 51
300
  0
ARC
  8
0
 62
50
  6
CONTINUOUS
 10
-2.6978417266187051
 20
-14.613309352517986
 40
0.62949640287769781
 50
234.72863805591317
 51
305.27136194408683
  0
ARC
  8
0
 62
50
  6
CONTINUOUS
 10
-3.3588129496403001
 20
-14.802158273381286
 40
0.44064748201438853
 50
240
 51
312.45973905995652
  0
LINE
  8
0
 62
50
  6
CONTINUOUS
 10
-3.5791366906474766
 20
-15.183770186919398
 11
-3.579136690647478
 21
-14.658273381294963
  0
LINE
  8
0
 62
50
  6
CONTINUOUS
 10
-2.3343392657823823
 20
-15.127246782758172
 11
-2.3343392657823832
 21
-14.658273381294963
  0
LINE
  8
0
 62
50
  6
CONTINUOUS
 10
-3.0613441874550258
 20
-15.127246782758172
 11
-3.0613441874550267
 21
-14.658273381294963
  0
LINE
  8
0
 62
50
  6
CONTINUOUS
 10
-2.0368705035971089
 20
-15.242805755395683
 11
-3.3588129496402988
 21
-15.242805755395683
  0
LINE
  8
0
 62
5
  6
CONTINUOUS
 10
-2.2482014388489207
 20
-14.613309352517986
 11
-2.2482014388489233
 21
-12.900179856115111
  0
LINE
  8
0
 62
5
  6
CONTINUOUS
 10
-2.2482014388489233
 20
-12.900179856115111
 11
-2.3336330935251866
 21
-12.814748201438848
  0
LINE
  8
0
 62
5
  6
CONTINUOUS
 10
-2.3336330935251866
 20
-12.814748201438848
 11
-3.0620503597122286
 21
-12.814748201438848
  0
LINE
  8
0
 62
5
  6
CONTINUOUS
 10
-3.0620503597122286
 20
-12.814748201438848
 11
-3.1474820143884918
 21
-12.900179856115111
  0
LINE
  8
0
 62
5
  6
CONTINUOUS
 10
-3.1474820143884918
 20
-12.900179856115111
 11
-3.1474820143884892
 21
-14.613309352517986
  0
LINE
  8
0
 62
5
  6
CONTINUOUS
 10
-2.2482014388489233
 20
-12.900179856115111
 11
-3.1474820143884918
 21
-12.900179856115111
  0
LINE
  8
0
 62
50
  6
CONTINUOUS
 10
-3.579136690647478
 20
-14.658273381294963
 11
-1.8165467625899321
 21
-14.658273381294963
  0
LINE
  8
0
 62
50
  6
CONTINUOUS
 10
-1.9334532374100719
 20
-14.658273381294963
 11
-1.9334532374100719
 21
-14.613309352517986
  0
LINE
  8
0
 62
50
  6
CONTINUOUS
 10
-3.4622302158273381
 20
-14.613309352517986
 11
-3.4622302158273381
 21
-14.658273381294963
  0
LINE
  8
0
 62
5
  6
CONTINUOUS
 10
-2.3336330935251866
 20
-12.814748201438848
 11
-2.3336330935251839
 21
-14.613309352517986
  0
LINE
  8
0
 62
5
  6
CONTINUOUS
 10
-3.0620503597122286
 20
-12.814748201438848
 11
-3.0620503597122259
 21
-14.613309352517986
  0
ENDBLK
  0
BLOCK
  8
0
 62
5
  6
DASHDOT
  2
TELL_6
 70
0
 10
-2.6978417266187051
 20
-7.8687050359712227
  0
LINE
  8
0
 62
50
  6
CONTINUOUS
 10
-1.8165467625899321
 20
-7.8237410071942417
 11
-1.8165467625899334
 21
-7.2982442015698092
  0
ARC
  8
0
 62
50
  6
CONTINUOUS
 10
-2.0368705035971097
 20
-7.6798561151079214
 40
0.44064748201438853
 50
60
 51
132.45973905995652
  0
ARC
  8
0
 62
50
  6
CONTINUOUS
 10
-2.6978417266187051
 20
-7.8687050359712227
 40
0.62949640287769781
 50
54.728638055913166
 51
125.27136194408683
  0
ARC
  8
0
 62
50
  6
CONTINUOUS
 10
-3.3588129496403001
 20
-7.6798561151079214
 40
0.44064748201438853
 50
47.540260940043481
 51
120
  0
LINE
  8
0
 62
50
  6
CONTINUOUS
 10
-3.5791366906474789
 20
-7.2982442015698092
 11
-3.579136690647478
 21
-7.823741007194247
  0
LINE
  8
0
 62
50
  6
CONTINUOUS
 10
-2.334339265782384
 20
-7.3547676057310341
 11
-2.3343392657823832
 21
-7.8237410071942444
  0
LINE
  8
0
 62
50
  6
CONTINUOUS
 10
-3.0613441874550271
 20
-7.3547676057310341
 11
-3.0613441874550267
 21
-7.8237410071942444
  0
LINE
  8
0
 62
50
  6
CONTINUOUS
 10
-2.0368705035971111
 20
-7.2392086330935248
 11
-3.358812949640301
 21
-7.2392086330935248
  0
LINE
  8
0
 62
5
  6
CONTINUOUS
 10
-2.2482014388489207
 20
-7.8687050359712227
 11
-2.248201438848918
 21
-9.5818345323740957
  0
LINE
  8
0
 62
5
  6
CONTINUOUS
 10
-2.248201438848918
 20
-9.5818345323740957
 11
-2.3336330935251812
 21
-9.6672661870503589
  0
LINE
  8
0
 62
5
  6
CONTINUOUS
 10
-2.3336330935251812
 20
-9.6672661870503589
 11
-3.0620503597122233
 21
-9.6672661870503589
  0
LINE
  8
0
 62
5
  6
CONTINUOUS
 10
-3.0620503597122233
 20
-9.6672661870503589
 11
-3.1474820143884865
 21
-9.5818345323740957
  0
LINE
  8
0
 62
5
  6
CONTINUOUS
 10
-3.1474820143884865
 20
-9.5818345323740957
 11
-3.1474820143884892
 21
-7.8687050359712227
  0
LINE
  8
0
 62
5
  6
CONTINUOUS
 10
-2.248201438848918
 20
-9.5818345323740957
 11
-3.1474820143884865
 21
-9.5818345323740957
  0
LINE
  8
0
 62
50
  6
CONTINUOUS
 10
-3.579136690647478
 20
-7.823741007194247
 11
-1.8165467625899321
 21
-7.8237410071942417
  0
LINE
  8
0
 62
50
  6
CONTINUOUS
 10
-1.9334532374100719
 20
-7.8237410071942444
 11
-1.9334532374100719
 21
-7.8687050359712227
  0
LINE
  8
0
 62
50
  6
CONTINUOUS
 10
-3.4622302158273381
 20
-7.8687050359712227
 11
-3.4622302158273381
 21
-7.8237410071942444
  0
LINE
  8
0
 62
5
  6
CONTINUOUS
 10
-2.3336330935251812
 20
-9.6672661870503589
 11
-2.3336330935251839
 21
-7.8687050359712227
  0
LINE
  8
0
 62
5
  6
CONTINUOUS
 10
-3.0620503597122233
 20
-9.6672661870503589
 11
-3.0620503597122259
 21
-7.8687050359712227
  0
ENDBLK
  0
BLOCK
  8
0
 62
5
  6
DASHDOT
  2
TELL_4
 70
0
 10
-2.6978417266636687
 20
-11.241007194244604
  0
LINE
  8
0
 62
50
  6
CONTINUOUS
 10
-4.4964028776978413
 20
-3.5971223021582732
 11
-0.89928057553956831
 21
-3.5971223021582732
  0
LINE
  8
0
 62
50
  6
CONTINUOUS
 10
-0.89928057553956831
 20
-3.5971223021582732
 11
0
 21
-4.1163221845230469
  0
LINE
  8
0
 62
50
  6
CONTINUOUS
 10
0
 20
-4.1163221845230469
 11
0
 21
-18.36569220396618
  0
LINE
  8
0
 62
50
  6
CONTINUOUS
 10
0
 20
-18.36569220396618
 11
-0.89928057553956831
 21
-18.884892086330936
  0
LINE
  8
0
 62
50
  6
CONTINUOUS
 10
-0.89928057553956831
 20
-18.884892086330936
 11
-4.4964028776978413
 21
-18.884892086330936
  0
LINE
  8
0
 62
50
  6
CONTINUOUS
 10
-4.4964028776978413
 20
-18.884892086330936
 11
-5.3956834532374103
 21
-18.365692203966201
  0
LINE
  8
0
 62
50
  6
CONTINUOUS
 10
-5.3956834532374103
 20
-18.365692203966201
 11
-5.3956834532374103
 21
-4.1163221845230265
  0
LINE
  8
0
 62
50
  6
CONTINUOUS
 10
-5.3956834532374103
 20
-4.1163221845230265
 11
-4.4964028776978413
 21
-3.5971223021582732
  0
LINE
  8
0
 62
50
  6
CONTINUOUS
 10
-2.2032374100719423
 20
-6.5197841726618702
 11
-2.2032374100719423
 21
-4.8111510791366907
  0
LINE
  8
0
 62
50
  6
CONTINUOUS
 10
-3.1924460431654675
 20
-4.8111510791366907
 11
-3.1924460431654675
 21
-6.5197841726618702
  0
LINE
  8
0
 62
50
  6
CONTINUOUS
 10
-3.1924460431654675
 20
-15.962230215827338
 11
-3.1924460431654675
 21
-17.670863309352516
  0
LINE
  8
0
 62
50
  6
CONTINUOUS
 10
-2.2032374100719423
 20
-17.670863309352516
 11
-2.2032374100719423
 21
-15.962230215827338
  0
LINE
  8
0
 62
50
  6
CONTINUOUS
 10
-1.3938848920863309
 20
-14.613309352517986
 11
-4.0017985611510793
 21
-14.613309352517986
  0
LINE
  8
0
 62
50
  6
CONTINUOUS
 10
-4.5413669064748197
 20
-14.073741007194243
 11
-4.5413669064748197
 21
-13.803956834532373
  0
LINE
  8
0
 62
50
  6
CONTINUOUS
 10
-4.5413669064748197
 20
-13.803956834532373
 11
-4.2715827338129495
 21
-13.803956834532373
  0
LINE
  8
0
 62
50
  6
CONTINUOUS
 10
-4.2715827338129495
 20
-13.803956834532373
 11
-4.2715827338129495
 21
-14.073741007194243
  0
LINE
  8
0
 62
50
  6
CONTINUOUS
 10
-4.0017985611510793
 20
-14.343525179856114
 11
-1.3938848920863309
 21
-14.343525179856114
  0
LINE
  8
0
 62
50
  6
CONTINUOUS
 10
-1.1241007194244603
 20
-14.073741007194243
 11
-1.1241007194244603
 21
-13.803956834532373
  0
LINE
  8
0
 62
50
  6
CONTINUOUS
 10
-1.1241007194244603
 20
-13.803956834532373
 11
-0.85431654676258995
 21
-13.803956834532373
  0
LINE
  8
0
 62
50
  6
CONTINUOUS
 10
-0.85431654676258995
 20
-13.803956834532373
 11
-0.85431654676258995
 21
-14.073741007194243
  0
LINE
  8
0
 62
50
  6
CONTINUOUS
 10
-1.4388489208633093
 20
-11.825539568345324
 11
-1.4388489208633093
 21
-13.803956834532373
  0
LINE
  8
0
 62
50
  6
CONTINUOUS
 10
-1.7086330935251799
 20
-14.073741007194243
 11
-3.6870503597122299
 21
-14.073741007194243
  0
LINE
  8
0
 62
50
  6
CONTINUOUS
 10
-3.9568345323741005
 20
-13.803956834532373
 11
-3.9568345323741005
 21
-11.825539568345324
  0
LINE
  8
0
 62
50
  6
CONTINUOUS
 10
-3.6870503597122299
 20
-11.555755395683454
 11
-1.7086330935251799
 21
-11.555755395683454
  0
LINE
  8
0
 62
50
  6
CONTINUOUS
 10
-3.7320143884892083
 20
-11.825539568345324
 11
-3.7320143884892083
 21
-13.803956834532373
  0
LINE
  8
0
 62
50
  6
CONTINUOUS
 10
-3.6870503597122299
 20
-13.848920863309353
 11
-1.7086330935251799
 21
-13.848920863309353
  0
LINE
  8
0
 62
50
  6
CONTINUOUS
 10
-1.6636690647482013
 20
-13.803956834532373
 11
-1.6636690647482013
 21
-11.825539568345324
  0
LINE
  8
0
 62
50
  6
CONTINUOUS
 10
-1.7086330935251799
 20
-11.780575539568344
 11
-3.6870503597122299
 21
-11.780575539568344
  0
ARC
  8
0
 62
50
  6
CONTINUOUS
 10
-2.6978417266187051
 20
-6.5197841726618702
 40
0.49460431654676018
 50
180
 51
0
  0
ARC
  8
0
 62
50
  6
CONTINUOUS
 10
-2.6978417266187256
 20
-4.8111510791366907
 40
0.49460431654676018
 50
0
 51
180
  0
ARC
  8
0
 62
50
  6
CONTINUOUS
 10
-2.6978417266187051
 20
-17.670863309352516
 40
0.49460431654675396
 50
180
 51
0
  0
ARC
  8
0
 62
50
  6
CONTINUOUS
 10
-2.6978417266187051
 20
-15.962230215827338
 40
0.49460431654676651
 50
0
 51
180
  0
ARC
  8
0
 62
50
  6
CONTINUOUS
 10
-1.7086330935251799
 20
-13.803956834532373
 40
0.044964028776978415
 50
270
 51
0
  0
ARC
  8
0
 62
50
  6
CONTINUOUS
 10
-3.6870503597122299
 20
-13.803956834532373
 40
0.044964028776978415
 50
180
 51
270
  0
ARC
  8
0
 62
50
  6
CONTINUOUS
 10
-3.6870503597122299
 20
-11.825539568345324
 40
0.044964028776978415
 50
90
 51
180
  0
ARC
  8
0
 62
50
  6
CONTINUOUS
 10
-1.7086330935251799
 20
-11.825539568345324
 40
0.044964028776978415
 50
0
 51
90
  0
ARC
  8
0
 62
50
  6
CONTINUOUS
 10
-3.6870503597122299
 20
-11.825539568345324
 40
0.26978417266187049
 50
90
 51
180
  0
ARC
  8
0
 62
50
  6
CONTINUOUS
 10
-1.7086330935251799
 20
-11.825539568345324
 40
0.26978417266187049
 50
0
 51
90
  0
ARC
  8
0
 62
50
  6
CONTINUOUS
 10
-3.6870503597122299
 20
-13.803956834532373
 40
0.26978417266187049
 50
180
 51
270
  0
ARC
  8
0
 62
50
  6
CONTINUOUS
 10
-1.7086330935251799
 20
-13.803956834532373
 40
0.26978417266187049
 50
270
 51
0
  0
ARC
  8
0
 62
50
  6
CONTINUOUS
 10
-4.0017985611510998
 20
-14.073741007194243
 40
0.26978417266187049
 50
180
 51
270
  0
ARC
  8
0
 62
50
  6
CONTINUOUS
 10
-1.3938848920863105
 20
-14.073741007194243
 40
0.26978417266187049
 50
270
 51
0
  0
ARC
  8
0
 62
50
  6
CONTINUOUS
 10
-4.0017985611510793
 20
-14.073741007194243
 40
0.53956834532374098
 50
180
 51
270
  0
ARC
  8
0
 62
50
  6
CONTINUOUS
 10
-1.3938848920863309
 20
-14.073741007194243
 40
0.53956834532374098
 50
270
 51
0
  0
INSERT
  8
0
 62
5
  6
DASHDOT
  2
TELL_5
 10
-2.6978417266187051
 20
-14.613309352517986
 41
1.0
 42
1.0
 50
0.0
  0
LINE
  8
0
 62
5
  6
DASHDOT
 10
-2.6978417266187051
 20
-19.154676258992804
 11
-2.6978417266187051
 21
-3.3273381294964026
  0
LINE
  8
0
 62
5
  6
DASHDOT
 10
-3.4622302158273177
 20
-5.6654676258992804
 11
-1.9334532374100923
 21
-5.6654676258992804
  0
LINE
  8
0
 62
5
  6
DASHDOT
 10
-3.4622302158273177
 20
-16.816546762589926
 11
-1.9334532374100923
 21
-16.816546762589926
  0
LINE
  8
0
 62
50
  6
CONTINUOUS
 10
-1.3938848920863309
 20
-7.8687050359712227
 11
-4.0017985611510793
 21
-7.8687050359712227
  0
LINE
  8
0
 62
50
  6
CONTINUOUS
 10
-4.5413669064748197
 20
-8.408273381294963
 11
-4.5413669064748197
 21
-8.678057553956835
  0
LINE
  8
0
 62
50
  6
CONTINUOUS
 10
-4.5413669064748197
 20
-8.678057553956835
 11
-4.2715827338129495
 21
-8.678057553956835
  0
LINE
  8
0
 62
50
  6
CONTINUOUS
 10
-4.2715827338129495
 20
-8.678057553956835
 11
-4.2715827338129495
 21
-8.408273381294963
  0
LINE
  8
0
 62
50
  6
CONTINUOUS
 10
-4.0017985611510793
 20
-8.1384892086330929
 11
-1.3938848920863309
 21
-8.1384892086330929
  0
LINE
  8
0
 62
50
  6
CONTINUOUS
 10
-1.1241007194244603
 20
-8.408273381294963
 11
-1.1241007194244603
 21
-8.678057553956835
  0
LINE
  8
0
 62
50
  6
CONTINUOUS
 10
-1.1241007194244603
 20
-8.678057553956835
 11
-0.85431654676258995
 21
-8.678057553956835
  0
LINE
  8
0
 62
50
  6
CONTINUOUS
 10
-0.85431654676258995
 20
-8.678057553956835
 11
-0.85431654676258995
 21
-8.408273381294963
  0
LINE
  8
0
 62
50
  6
CONTINUOUS
 10
-1.4388489208633093
 20
-10.656474820143885
 11
-1.4388489208633093
 21
-8.678057553956835
  0
LINE
  8
0
 62
50
  6
CONTINUOUS
 10
-1.7086330935251799
 20
-8.408273381294963
 11
-3.6870503597122299
 21
-8.408273381294963
  0
LINE
  8
0
 62
50
  6
CONTINUOUS
 10
-3.9568345323741005
 20
-8.678057553956835
 11
-3.9568345323741005
 21
-10.656474820143885
  0
LINE
  8
0
 62
50
  6
CONTINUOUS
 10
-3.6870503597122299
 20
-10.926258992805755
 11
-1.7086330935251799
 21
-10.926258992805755
  0
LINE
  8
0
 62
50
  6
CONTINUOUS
 10
-3.7320143884892083
 20
-10.656474820143885
 11
-3.7320143884892083
 21
-8.678057553956835
  0
LINE
  8
0
 62
50
  6
CONTINUOUS
 10
-3.6870503597122299
 20
-8.6330935251798557
 11
-1.7086330935251799
 21
-8.6330935251798557
  0
LINE
  8
0
 62
50
  6
CONTINUOUS
 10
-1.6636690647482013
 20
-8.678057553956835
 11
-1.6636690647482013
 21
-10.656474820143885
  0
LINE
  8
0
 62
50
  6
CONTINUOUS
 10
-1.7086330935251799
 20
-10.701438848920862
 11
-3.6870503597122299
 21
-10.701438848920862
  0
ARC
  8
0
 62
50
  6
CONTINUOUS
 10
-1.7086330935251799
 20
-8.678057553956835
 40
0.044964028776978415
 50
0
 51
90
  0
ARC
  8
0
 62
50
  6
CONTINUOUS
 10
-3.6870503597122299
 20
-8.678057553956835
 40
0.044964028776978415
 50
90
 51
180
  0
ARC
  8
0
 62
50
  6
CONTINUOUS
 10
-3.6870503597122299
 20
-10.656474820143885
 40
0.044964028776978415
 50
180
 51
270
  0
ARC
  8
0
 62
50
  6
CONTINUOUS
 10
-1.7086330935251799
 20
-10.656474820143885
 40
0.044964028776978415
 50
270
 51
0
  0
ARC
  8
0
 62
50
  6
CONTINUOUS
 10
-3.6870503597122299
 20
-10.656474820143885
 40
0.26978417266187049
 50
180
 51
270
  0
ARC
  8
0
 62
50
  6
CONTINUOUS
 10
-1.7086330935251799
 20
-10.656474820143885
 40
0.26978417266187049
 50
270
 51
0
  0
ARC
  8
0
 62
50
  6
CONTINUOUS
 10
-3.6870503597122299
 20
-8.678057553956835
 40
0.26978417266187049
 50
90
 51
180
  0
ARC
  8
0
 62
50
  6
CONTINUOUS
 10
-1.7086330935251799
 20
-8.678057553956835
 40
0.26978417266187049
 50
0
 51
90
  0
ARC
  8
0
 62
50
  6
CONTINUOUS
 10
-4.0017985611510998
 20
-8.408273381294963
 40
0.26978417266187049
 50
90
 51
180
  0
ARC
  8
0
 62
50
  6
CONTINUOUS
 10
-1.3938848920863105
 20
-8.408273381294963
 40
0.26978417266187049
 50
0
 51
90
  0
ARC
  8
0
 62
50
  6
CONTINUOUS
 10
-4.0017985611510793
 20
-8.408273381294963
 40
0.53956834532374098
 50
90
 51
180
  0
ARC
  8
0
 62
50
  6
CONTINUOUS
 10
-1.3938848920863309
 20
-8.408273381294963
 40
0.53956834532374098
 50
0
 51
90
  0
INSERT
  8
0
 62
5
  6
DASHDOT
  2
TELL_6
 10
-2.6978417266187051
 20
-7.8687050359712227
 41
1.0
 42
1.0
 50
0.0
  0
ENDBLK
  0
BLOCK
  8
0
 62
140
  6
CONTINUOUS
  2
TELL_7
 70
0
 10
13.03956834532374
 20
0.67446043165467628
  0
LINE
  8
0
 62
50
  6
CONTINUOUS
 10
14.073741007194243
 20
0.89928057553956831
 11
14.523381294964029
 21
0.44964028776978415
  0
LINE
  8
0
 62
50
  6
CONTINUOUS
 10
14.523381294964029
 20
0.44964028776978415
 11
11.555755395683454
 21
0.44964028776978415
  0
LINE
  8
0
 62
50
  6
CONTINUOUS
 10
11.555755395683454
 20
0.44964028776978415
 11
11.555755395683454
 21
0.89928057553956831
  0
LINE
  8
0
 62
50
  6
CONTINUOUS
 10
11.555755395683454
 20
0.89928057553956831
 11
11.575659618541307
 21
0.89928057553956831
  0
LINE
  8
0
 62
50
  6
CONTINUOUS
 10
11.575659620229107
 20
0.89928057553956831
 11
11.576291493027529
 21
0.89850780045127532
  0
LINE
  8
0
 62
50
  6
CONTINUOUS
 10
11.576291493027529
 20
0.89850780052435386
 11
11.579103006650268
 21
0.89928057553956831
  0
LINE
  8
0
 62
50
  6
CONTINUOUS
 10
11.57910301505467
 20
0.89928057553956831
 11
11.631849809573977
 21
0.89928057553956831
  0
LINE
  8
0
 62
50
  6
CONTINUOUS
 10
11.63184981406391
 20
0.89928057553956831
 11
11.634773350399321
 21
0.89825004461957392
  0
LINE
  8
0
 62
50
  6
CONTINUOUS
 10
11.634773350399321
 20
0.89825004484005688
 11
11.639148730365326
 21
0.89928057553956831
  0
LINE
  8
0
 62
50
  6
CONTINUOUS
 10
11.639148738513974
 20
0.89928057553956831
 11
11.7180898961407
 21
0.89928057553956831
  0
LINE
  8
0
 62
50
  6
CONTINUOUS
 10
11.718089905392846
 20
0.89928057553956831
 11
11.722297635153298
 21
0.89850780026876287
  0
LINE
  8
0
 62
50
  6
CONTINUOUS
 10
11.722297635153298
 20
0.89850780034118716
 11
11.725474274248349
 21
0.89928057553956831
  0
LINE
  8
0
 62
50
  6
CONTINUOUS
 10
11.725474281984289
 20
0.89928057553956831
 11
13.904022120893408
 21
0.89928057553956831
  0
LINE
  8
0
 62
50
  6
CONTINUOUS
 10
13.904022128629387
 20
0.89928057553956831
 11
13.907198767724399
 21
0.89850780034118716
  0
LINE
  8
0
 62
50
  6
CONTINUOUS
 10
13.907198767724399
 20
0.89850780026878341
 11
13.911406497484831
 21
0.89928057553956831
  0
LINE
  8
0
 62
50
  6
CONTINUOUS
 10
13.911406506736997
 20
0.89928057553956831
 11
13.990347664363886
 21
0.89928057553956831
  0
LINE
  8
0
 62
50
  6
CONTINUOUS
 10
13.99034767251233
 20
0.89928057553956831
 11
13.994723052478376
 21
0.89825004484005688
  0
LINE
  8
0
 62
50
  6
CONTINUOUS
 10
13.994723052478376
 20
0.89825004461955349
 11
13.997646588813787
 21
0.89928057553956831
  0
LINE
  8
0
 62
50
  6
CONTINUOUS
 10
13.997646593303639
 20
0.89928057553956831
 11
14.050393387823108
 21
0.89928057553956831
  0
LINE
  8
0
 62
50
  6
CONTINUOUS
 10
14.05039339622749
 20
0.89928057553956831
 11
14.053204909850168
 21
0.89850780052439472
  0
LINE
  8
0
 62
50
  6
CONTINUOUS
 10
14.053204909850187
 20
0.89850780045125478
 11
14.05383678264859
 21
0.89928057553956831
  0
LINE
  8
0
 62
50
  6
CONTINUOUS
 10
14.05383678433639
 20
0.89928057553956831
 11
14.073741007194243
 21
0.89928057553956831
  0
ENDBLK
  0
BLOCK
  8
0
 62
5
  6
DASHDOT
  2
TELL_8
 70
0
 10
14.613309352517986
 20
4.4964028776978413
  0
LINE
  8
0
 62
50
  6
CONTINUOUS
 10
14.658273381294963
 20
5.377697841726655
 11
15.183770186919398
 21
5.3776978417266559
  0
ARC
  8
0
 62
50
  6
CONTINUOUS
 10
14.802158273381286
 20
5.1573741007194567
 40
0.44064748201438853
 50
317.54026094004342
 51
30
  0
ARC
  8
0
 62
50
  6
CONTINUOUS
 10
14.613309352517986
 20
4.4964028776978822
 40
0.62949640287769781
 50
324.72863805591317
 51
35.271361944086834
  0
ARC
  8
0
 62
50
  6
CONTINUOUS
 10
14.802158273381286
 20
3.8354316546763081
 40
0.44064748201438853
 50
330
 51
42.459739059956519
  0
LINE
  8
0
 62
50
  6
CONTINUOUS
 10
15.183770186919398
 20
3.6151079136691102
 11
14.658273381294963
 21
3.6151079136691098
  0
LINE
  8
0
 62
50
  6
CONTINUOUS
 10
15.127246782758172
 20
4.8599053385342046
 11
14.658273381294963
 21
4.8599053385342037
  0
LINE
  8
0
 62
50
  6
CONTINUOUS
 10
15.127246782758172
 20
4.1329004168615615
 11
14.658273381294963
 21
4.1329004168615606
  0
LINE
  8
0
 62
50
  6
CONTINUOUS
 10
15.242805755395683
 20
5.1573741007194576
 11
15.242805755395683
 21
3.8354316546763085
  0
LINE
  8
0
 62
5
  6
CONTINUOUS
 10
14.613309352517986
 20
4.9460431654676666
 11
12.900179856115111
 21
4.9460431654676551
  0
LINE
  8
0
 62
5
  6
CONTINUOUS
 10
12.900179856115111
 20
4.9460431654676551
 11
12.814748201438848
 21
4.8606115107913919
  0
LINE
  8
0
 62
5
  6
CONTINUOUS
 10
12.814748201438848
 20
4.8606115107913919
 11
12.814748201438848
 21
4.1321942446043503
  0
LINE
  8
0
 62
5
  6
CONTINUOUS
 10
12.814748201438848
 20
4.1321942446043503
 11
12.900179856115111
 21
4.046762589928087
  0
LINE
  8
0
 62
5
  6
CONTINUOUS
 10
12.900179856115111
 20
4.046762589928087
 11
14.613309352517986
 21
4.0467625899280986
  0
LINE
  8
0
 62
5
  6
CONTINUOUS
 10
12.900179856115111
 20
4.9460431654676551
 11
12.900179856115111
 21
4.046762589928087
  0
LINE
  8
0
 62
50
  6
CONTINUOUS
 10
14.658273381294963
 20
3.6151079136691098
 11
14.658273381294963
 21
5.377697841726655
  0
LINE
  8
0
 62
50
  6
CONTINUOUS
 10
14.658273381294963
 20
5.2607913669065152
 11
14.613309352517986
 21
5.2607913669065152
  0
LINE
  8
0
 62
50
  6
CONTINUOUS
 10
14.613309352517986
 20
3.7320143884892492
 11
14.658273381294963
 21
3.7320143884892492
  0
LINE
  8
0
 62
5
  6
CONTINUOUS
 10
12.814748201438848
 20
4.8606115107913919
 11
14.613309352517986
 21
4.8606115107914034
  0
LINE
  8
0
 62
5
  6
CONTINUOUS
 10
12.814748201438848
 20
4.1321942446043503
 11
14.613309352517986
 21
4.1321942446043609
  0
ENDBLK
  0
BLOCK
  8
0
 62
140
  6
CONTINUOUS
  2
TELL_9
 70
0
 10
9.442446043165468
 20
0.67446043165467628
  0
LINE
  8
0
 62
50
  6
CONTINUOUS
 10
8.408273381294963
 20
0.89928057553956031
 11
7.9586330935251794
 21
0.44964028776977299
  0
LINE
  8
0
 62
50
  6
CONTINUOUS
 10
7.9586330935251794
 20
0.44964028776977299
 11
10.926258992805755
 21
0.44964028776979531
  0
LINE
  8
0
 62
50
  6
CONTINUOUS
 10
10.926258992805755
 20
0.44964028776979531
 11
10.926258992805755
 21
0.89928057553957952
  0
LINE
  8
0
 62
50
  6
CONTINUOUS
 10
10.926258992805755
 20
0.89928057553957952
 11
10.906354769947901
 21
0.89928057553957952
  0
LINE
  8
0
 62
50
  6
CONTINUOUS
 10
10.906354768260101
 20
0.89928057553957952
 11
10.905722895461677
 21
0.89850780045128642
  0
LINE
  8
0
 62
50
  6
CONTINUOUS
 10
10.905722895461677
 20
0.89850780052436496
 11
10.902911381838939
 21
0.89928057553957952
  0
LINE
  8
0
 62
50
  6
CONTINUOUS
 10
10.902911373434538
 20
0.89928057553957952
 11
10.850164578915232
 21
0.89928057553957952
  0
LINE
  8
0
 62
50
  6
CONTINUOUS
 10
10.850164574425296
 20
0.89928057553957952
 11
10.847241038089887
 21
0.89825004461958513
  0
LINE
  8
0
 62
50
  6
CONTINUOUS
 10
10.847241038089887
 20
0.89825004484006798
 11
10.84286565812388
 21
0.89928057553957952
  0
LINE
  8
0
 62
50
  6
CONTINUOUS
 10
10.842865649975234
 20
0.89928057553957952
 11
10.763924492348508
 21
0.89928057553957785
  0
LINE
  8
0
 62
50
  6
CONTINUOUS
 10
10.763924483096362
 20
0.89928057553957785
 11
10.75971675333591
 21
0.89850780026877253
  0
LINE
  8
0
 62
50
  6
CONTINUOUS
 10
10.75971675333591
 20
0.89850780034119671
 11
10.756540114240858
 21
0.89928057553957785
  0
LINE
  8
0
 62
50
  6
CONTINUOUS
 10
10.756540106504918
 20
0.89928057553957785
 11
8.5779922675957998
 21
0.89928057553956187
  0
LINE
  8
0
 62
50
  6
CONTINUOUS
 10
8.5779922598598191
 20
0.89928057553956187
 11
8.5748156207648094
 21
0.89850780034118072
  0
LINE
  8
0
 62
50
  6
CONTINUOUS
 10
8.5748156207648094
 20
0.89850780026877697
 11
8.5706078910043768
 21
0.89928057553956187
  0
LINE
  8
0
 62
50
  6
CONTINUOUS
 10
8.5706078817522098
 20
0.89928057553956187
 11
8.4916667241253201
 21
0.89928057553956109
  0
LINE
  8
0
 62
50
  6
CONTINUOUS
 10
8.4916667159768782
 20
0.89928057553956109
 11
8.4872913360108324
 21
0.89825004484004967
  0
LINE
  8
0
 62
50
  6
CONTINUOUS
 10
8.4872913360108324
 20
0.89825004461954627
 11
8.4843677996754217
 21
0.89928057553956109
  0
LINE
  8
0
 62
50
  6
CONTINUOUS
 10
8.4843677951855678
 20
0.89928057553956109
 11
8.4316210006660981
 21
0.89928057553956031
  0
LINE
  8
0
 62
50
  6
CONTINUOUS
 10
8.4316209922617169
 20
0.89928057553956031
 11
8.4288094786390406
 21
0.89850780052438672
  0
LINE
  8
0
 62
50
  6
CONTINUOUS
 10
8.4288094786390193
 20
0.89850780045124679
 11
8.4281776058406184
 21
0.89928057553956031
  0
LINE
  8
0
 62
50
  6
CONTINUOUS
 10
8.4281776041528182
 20
0.89928057553956031
 11
8.408273381294963
 21
0.89928057553956031
  0
ENDBLK
  0
BLOCK
  8
0
 62
5
  6
DASHDOT
  2
TELL_10
 70
0
 10
7.8687050359712227
 20
4.4964028776978413
  0
LINE
  8
0
 62
50
  6
CONTINUOUS
 10
7.8237410071942382
 20
5.377697841726655
 11
7.2982442015698092
 21
5.3776978417266497
  0
ARC
  8
0
 62
50
  6
CONTINUOUS
 10
7.6798561151079214
 20
5.1573741007194567
 40
0.44064748201438853
 50
150
 51
222.45973905995652
  0
ARC
  8
0
 62
50
  6
CONTINUOUS
 10
7.8687050359712227
 20
4.4964028776978822
 40
0.62949640287769781
 50
144.72863805591317
 51
215.27136194408683
  0
ARC
  8
0
 62
50
  6
CONTINUOUS
 10
7.6798561151079214
 20
3.8354316546763081
 40
0.44064748201438853
 50
137.54026094004348
 51
210
  0
LINE
  8
0
 62
50
  6
CONTINUOUS
 10
7.2982442015698092
 20
3.615107913669104
 11
7.8237410071942506
 21
3.6151079136691098
  0
LINE
  8
0
 62
50
  6
CONTINUOUS
 10
7.3547676057310341
 20
4.8599053385341984
 11
7.8237410071942444
 21
4.8599053385342037
  0
LINE
  8
0
 62
50
  6
CONTINUOUS
 10
7.3547676057310341
 20
4.1329004168615553
 11
7.8237410071942444
 21
4.1329004168615606
  0
LINE
  8
0
 62
50
  6
CONTINUOUS
 10
7.2392086330935248
 20
5.1573741007194513
 11
7.2392086330935248
 21
3.8354316546763023
  0
LINE
  8
0
 62
5
  6
CONTINUOUS
 10
7.8687050359712227
 20
4.9460431654676666
 11
9.5818345323740957
 21
4.9460431654676782
  0
LINE
  8
0
 62
5
  6
CONTINUOUS
 10
9.5818345323740957
 20
4.9460431654676782
 11
9.6672661870503589
 21
4.8606115107914158
  0
LINE
  8
0
 62
5
  6
CONTINUOUS
 10
9.6672661870503589
 20
4.8606115107914158
 11
9.6672661870503589
 21
4.1321942446043742
  0
LINE
  8
0
 62
5
  6
CONTINUOUS
 10
9.6672661870503589
 20
4.1321942446043742
 11
9.5818345323740957
 21
4.0467625899281101
  0
LINE
  8
0
 62
5
  6
CONTINUOUS
 10
9.5818345323740957
 20
4.0467625899281101
 11
7.8687050359712227
 21
4.0467625899280986
  0
LINE
  8
0
 62
5
  6
CONTINUOUS
 10
9.5818345323740957
 20
4.9460431654676782
 11
9.5818345323740957
 21
4.0467625899281101
  0
LINE
  8
0
 62
50
  6
CONTINUOUS
 10
7.8237410071942506
 20
3.6151079136691098
 11
7.8237410071942382
 21
5.377697841726655
  0
LINE
  8
0
 62
50
  6
CONTINUOUS
 10
7.8237410071942444
 20
5.2607913669065152
 11
7.8687050359712227
 21
5.2607913669065152
  0
LINE
  8
0
 62
50
  6
CONTINUOUS
 10
7.8687050359712227
 20
3.7320143884892492
 11
7.8237410071942444
 21
3.7320143884892492
  0
LINE
  8
0
 62
5
  6
CONTINUOUS
 10
9.6672661870503589
 20
4.8606115107914158
 11
7.8687050359712227
 21
4.8606115107914034
  0
LINE
  8
0
 62
5
  6
CONTINUOUS
 10
9.6672661870503589
 20
4.1321942446043742
 11
7.8687050359712227
 21
4.1321942446043609
  0
ENDBLK
  0
BLOCK
  8
249
 62
5
  6
DASHDOT
  2
TELL_11
 70
0
 10
9.6672661870503589
 20
4.4964028776978413
  0
CIRCLE
  8
249
 62
50
  6
CONTINUOUS
 10
9.6672661870503589
 20
4.4964028776978822
 40
0.36690647482014388
  0
ARC
  8
249
 62
5
  6
CONTINUOUS
 10
9.6672661870503589
 20
4.4964028776978822
 40
0.44964028776978415
 50
175.00000000000003
 51
90
  0
LINE
  8
249
 62
5
  6
DASHDOT
 10
9.6672661870503589
 20
5.1258992805755801
 11
9.6672661870503589
 21
3.8669064748201847
  0
ENDBLK
  0
BLOCK
  8
0
 62
5
  6
DASHDOT
  2
TELL_12
 70
0
 10
12.814748201438848
 20
4.4964028776978822
  0
CIRCLE
  8
0
 62
50
  6
CONTINUOUS
 10
12.814748201438848
 20
4.496402877697923
 40
0.36690647482014388
  0
ARC
  8
0
 62
5
  6
CONTINUOUS
 10
12.814748201438848
 20
4.496402877697923
 40
0.44964028776978415
 50
175.00000000000003
 51
90
  0
LINE
  8
0
 62
5
  6
DASHDOT
 10
12.814748201438848
 20
5.1258992805756209
 11
12.814748201438848
 21
3.8669064748202255
  0
ENDBLK
  0
BLOCK
  8
0
 62
50
  6
CONTINUOUS
  2
3_50_CMD
 70
0
 10
11.241007194244604
 20
0
  0
LINE
  8
0
 62
50
  6
CONTINUOUS
 10
3.5971223021582732
 20
0.44964028776978415
 11
18.884892086330936
 21
0.44964028776978415
  0
LINE
  8
0
 62
50
  6
CONTINUOUS
 10
3.5971223021582732
 20
0
 11
18.884892086330936
 21
0
  0
INSERT
  8
0
 62
140
  6
CONTINUOUS
  2
TELL_7
 10
13.03956834532374
 20
0.67446043165467628
 41
1.0
 42
1.0
 50
0.0
  0
LINE
  8
0
 62
50
  6
CONTINUOUS
 10
14.073741007194243
 20
0.89928057553956831
 11
14.523381294964029
 21
0.44964028776978415
  0
LINE
  8
0
 62
50
  6
CONTINUOUS
 10
14.05383678264859
 20
0.89928057553956831
 11
14.053204909850187
 21
0.89850780045125478
  0
LINE
  8
0
 62
50
  6
CONTINUOUS
 10
14.073741007194243
 20
0.89928057553956831
 11
14.073741007194243
 21
3.2374100719424459
  0
LINE
  8
0
 62
50
  6
CONTINUOUS
 10
14.073741007194243
 20
5.7553956834532372
 11
14.073741007194243
 21
5.8453237410071939
  0
LINE
  8
0
 62
50
  6
CONTINUOUS
 10
11.576291493027529
 20
0.89850780045127532
 11
11.575659620229107
 21
0.89928057553956831
  0
LINE
  8
0
 62
50
  6
CONTINUOUS
 10
11.555755395683454
 20
0.44964028776978415
 11
11.555755395683454
 21
5.8453237410071939
  0
LINE
  8
0
 62
50
  6
CONTINUOUS
 10
11.555755395683454
 20
0.89928057553956831
 11
11.575659618541307
 21
0.89928057553956831
  0
LINE
  8
0
 62
50
  6
CONTINUOUS
 10
14.05383678433639
 20
0.89928057553956831
 11
14.073741007194243
 21
0.89928057553956831
  0
LINE
  8
0
 62
50
  6
CONTINUOUS
 10
11.555755395683454
 20
5.8453237410071939
 11
14.073741007194243
 21
5.8453237410071939
  0
LINE
  8
0
 62
50
  6
CONTINUOUS
 10
11.579103006650268
 20
0.89928057553956831
 11
11.576291493027529
 21
0.89850780052435386
  0
LINE
  8
0
 62
50
  6
CONTINUOUS
 10
11.634773350399321
 20
0.89825004461957392
 11
11.63184981406391
 21
0.89928057553956831
  0
LINE
  8
0
 62
50
  6
CONTINUOUS
 10
14.053204909850168
 20
0.89850780052439472
 11
14.05039339622749
 21
0.89928057553956831
  0
LINE
  8
0
 62
50
  6
CONTINUOUS
 10
13.997646588813787
 20
0.89928057553956831
 11
13.994723052478376
 21
0.89825004461955349
  0
LINE
  8
0
 62
50
  6
CONTINUOUS
 10
13.994723052478376
 20
0.89825004484005688
 11
13.99034767251233
 21
0.89928057553956831
  0
LINE
  8
0
 62
50
  6
CONTINUOUS
 10
13.911406497484831
 20
0.89928057553956831
 11
13.907198767724399
 21
0.89850780026878341
  0
LINE
  8
0
 62
50
  6
CONTINUOUS
 10
11.639148730365326
 20
0.89928057553956831
 11
11.634773350399321
 21
0.89825004484005688
  0
LINE
  8
0
 62
50
  6
CONTINUOUS
 10
11.722297635153298
 20
0.89850780026876287
 11
11.718089905392846
 21
0.89928057553956831
  0
LINE
  8
0
 62
50
  6
CONTINUOUS
 10
13.907198767724399
 20
0.89850780034118716
 11
13.904022128629387
 21
0.89928057553956831
  0
LINE
  8
0
 62
50
  6
CONTINUOUS
 10
11.725474274248349
 20
0.89928057553956831
 11
11.722297635153298
 21
0.89850780034118716
  0
LINE
  8
0
 62
50
  6
CONTINUOUS
 10
13.997646593303639
 20
0.89928057553956831
 11
14.050393387823108
 21
0.89928057553956831
  0
LINE
  8
0
 62
50
  6
CONTINUOUS
 10
13.803956834532373
 20
5.7553956834532372
 11
13.803956834532373
 21
3.2374100719424459
  0
LINE
  8
0
 62
5
  6
CONTINUOUS
 10
13.803956834532414
 20
3.1474820143884892
 11
13.803956834532414
 21
0.89928057553956831
  0
LINE
  8
0
 62
5
  6
CONTINUOUS
 10
11.825539568345365
 20
0.89928057553956831
 11
11.825539568345365
 21
5.8453237410071939
  0
LINE
  8
0
 62
50
  6
CONTINUOUS
 10
11.57910301505467
 20
0.89928057553956831
 11
11.631849809573977
 21
0.89928057553956831
  0
LINE
  8
0
 62
50
  6
CONTINUOUS
 10
14.613309352517986
 20
5.7553956834532372
 11
14.613309352517986
 21
3.2374100719424459
  0
LINE
  8
0
 62
50
  6
CONTINUOUS
 10
13.911406506736997
 20
0.89928057553956831
 11
13.990347664363886
 21
0.89928057553956831
  0
LINE
  8
0
 62
50
  6
CONTINUOUS
 10
11.639148738513974
 20
0.89928057553956831
 11
11.7180898961407
 21
0.89928057553956831
  0
LINE
  8
0
 62
50
  6
CONTINUOUS
 10
11.725474281984289
 20
0.89928057553956831
 11
13.904022120893408
 21
0.89928057553956831
  0
LINE
  8
0
 62
50
  6
CONTINUOUS
 10
13.803956834532373
 20
5.7553956834532372
 11
14.613309352517986
 21
5.7553956834532372
  0
LINE
  8
0
 62
50
  6
CONTINUOUS
 10
13.803956834532373
 20
3.2374100719424459
 11
14.613309352517986
 21
3.2374100719424459
  0
LINE
  8
0
 62
50
  6
CONTINUOUS
 10
3.5971223021582732
 20
0
 11
3.5971223021582732
 21
0.44964028776978415
  0
LINE
  8
0
 62
50
  6
CONTINUOUS
 10
18.884892086330936
 20
0.44964028776978415
 11
18.884892086330936
 21
0
  0
LINE
  8
0
 62
50
  6
CONTINUOUS
 10
4.116322184523006
 20
0
 11
4.116322184523006
 21
0.44964028776978415
  0
LINE
  8
0
 62
50
  6
CONTINUOUS
 10
18.365692203966201
 20
0.44964028776978415
 11
18.365692203966201
 21
0
  0
LINE
  8
0
 62
5
  6
CONTINUOUS
 10
14.073741007194265
 20
3.3273381294964026
 11
14.073741007194265
 21
5.6654676258992804
  0
LINE
  8
0
 62
5
  6
DASHDOT
 10
12.275179856115066
 20
4.4964028776978822
 11
15.512589928057553
 21
4.4964028776978822
  0
INSERT
  8
0
 62
5
  6
DASHDOT
  2
TELL_8
 10
14.613309352517986
 20
4.4964028776978413
 41
1.0
 42
1.0
 50
0.0
  0
LINE
  8
0
 62
5
  6
DASHDOT
 10
5.6654676258992804
 20
-0.26978417266187049
 11
5.6654676258992804
 21
0.71942446043165464
  0
LINE
  8
0
 62
5
  6
DASHDOT
 10
16.816546762589926
 20
-0.26978417266187049
 11
16.816546762589926
 21
0.71942446043165464
  0
INSERT
  8
0
 62
140
  6
CONTINUOUS
  2
TELL_9
 10
9.442446043165468
 20
0.67446043165467628
 41
1.0
 42
1.0
 50
0.0
  0
LINE
  8
0
 62
50
  6
CONTINUOUS
 10
8.408273381294963
 20
0.89928057553956831
 11
7.9586330935251794
 21
0.44964028776978415
  0
LINE
  8
0
 62
50
  6
CONTINUOUS
 10
8.4281776058406184
 20
0.89928057553956831
 11
8.4288094786390193
 21
0.89850780045125478
  0
LINE
  8
0
 62
50
  6
CONTINUOUS
 10
8.408273381294963
 20
0.89928057553956831
 11
8.408273381294963
 21
3.2374100719424459
  0
LINE
  8
0
 62
50
  6
CONTINUOUS
 10
8.408273381294963
 20
5.7553956834532372
 11
8.408273381294963
 21
5.8453237410071939
  0
LINE
  8
0
 62
50
  6
CONTINUOUS
 10
10.905722895461677
 20
0.89850780045127532
 11
10.906354768260101
 21
0.89928057553956831
  0
LINE
  8
0
 62
50
  6
CONTINUOUS
 10
10.926258992805755
 20
0.44964028776978415
 11
10.926258992805755
 21
5.8453237410071939
  0
LINE
  8
0
 62
50
  6
CONTINUOUS
 10
10.926258992805755
 20
0.89928057553956831
 11
10.906354769947901
 21
0.89928057553956831
  0
LINE
  8
0
 62
50
  6
CONTINUOUS
 10
8.4281776041528182
 20
0.89928057553956831
 11
8.408273381294963
 21
0.89928057553956831
  0
LINE
  8
0
 62
50
  6
CONTINUOUS
 10
10.926258992805755
 20
5.8453237410071939
 11
8.408273381294963
 21
5.8453237410071939
  0
LINE
  8
0
 62
50
  6
CONTINUOUS
 10
10.902911381838939
 20
0.89928057553956831
 11
10.905722895461677
 21
0.89850780052435386
  0
LINE
  8
0
 62
50
  6
CONTINUOUS
 10
10.847241038089887
 20
0.89825004461957392
 11
10.850164574425296
 21
0.89928057553956831
  0
LINE
  8
0
 62
50
  6
CONTINUOUS
 10
8.4288094786390406
 20
0.89850780052439472
 11
8.4316209922617169
 21
0.89928057553956831
  0
LINE
  8
0
 62
50
  6
CONTINUOUS
 10
8.4843677996754217
 20
0.89928057553956831
 11
8.4872913360108324
 21
0.89825004461955349
  0
LINE
  8
0
 62
50
  6
CONTINUOUS
 10
8.4872913360108324
 20
0.89825004484005688
 11
8.4916667159768782
 21
0.89928057553956831
  0
LINE
  8
0
 62
50
  6
CONTINUOUS
 10
8.5706078910043768
 20
0.89928057553956831
 11
8.5748156207648094
 21
0.89850780026878341
  0
LINE
  8
0
 62
50
  6
CONTINUOUS
 10
10.84286565812388
 20
0.89928057553956831
 11
10.847241038089887
 21
0.89825004484005688
  0
LINE
  8
0
 62
50
  6
CONTINUOUS
 10
10.75971675333591
 20
0.89850780026876287
 11
10.763924483096362
 21
0.89928057553956831
  0
LINE
  8
0
 62
50
  6
CONTINUOUS
 10
8.5748156207648094
 20
0.89850780034118716
 11
8.5779922598598191
 21
0.89928057553956831
  0
LINE
  8
0
 62
50
  6
CONTINUOUS
 10
10.756540114240858
 20
0.89928057553956831
 11
10.75971675333591
 21
0.89850780034118716
  0
LINE
  8
0
 62
50
  6
CONTINUOUS
 10
8.4843677951855678
 20
0.89928057553956831
 11
8.4316210006660981
 21
0.89928057553956831
  0
LINE
  8
0
 62
50
  6
CONTINUOUS
 10
8.678057553956835
 20
5.7553956834532372
 11
8.678057553956835
 21
3.2374100719424459
  0
LINE
  8
0
 62
5
  6
CONTINUOUS
 10
8.6780575539567941
 20
3.1474820143884892
 11
8.6780575539567941
 21
0.89928057553956831
  0
LINE
  8
0
 62
5
  6
CONTINUOUS
 10
10.656474820143844
 20
0.89928057553956831
 11
10.656474820143844
 21
5.8453237410071939
  0
LINE
  8
0
 62
50
  6
CONTINUOUS
 10
10.902911373434538
 20
0.89928057553956831
 11
10.850164578915232
 21
0.89928057553956831
  0
LINE
  8
0
 62
50
  6
CONTINUOUS
 10
7.8687050359712227
 20
5.7553956834532372
 11
7.8687050359712227
 21
3.2374100719424459
  0
LINE
  8
0
 62
50
  6
CONTINUOUS
 10
8.5706078817522098
 20
0.89928057553956831
 11
8.4916667241253201
 21
0.89928057553956831
  0
LINE
  8
0
 62
50
  6
CONTINUOUS
 10
10.842865649975234
 20
0.89928057553956831
 11
10.763924492348508
 21
0.89928057553956831
  0
LINE
  8
0
 62
50
  6
CONTINUOUS
 10
10.756540106504918
 20
0.89928057553956831
 11
8.5779922675957998
 21
0.89928057553956831
  0
LINE
  8
0
 62
50
  6
CONTINUOUS
 10
8.678057553956835
 20
5.7553956834532372
 11
7.8687050359712227
 21
5.7553956834532372
  0
LINE
  8
0
 62
50
  6
CONTINUOUS
 10
8.678057553956835
 20
3.2374100719424459
 11
7.8687050359712227
 21
3.2374100719424459
  0
LINE
  8
0
 62
5
  6
CONTINUOUS
 10
8.4082733812949435
 20
3.3273381294964026
 11
8.4082733812949435
 21
5.6654676258992804
  0
LINE
  8
0
 62
5
  6
DASHDOT
 10
10.206834532374142
 20
4.4964028776978822
 11
6.9694244604316546
 21
4.4964028776978822
  0
INSERT
  8
0
 62
5
  6
DASHDOT
  2
TELL_10
 10
7.8687050359712227
 20
4.4964028776978413
 41
1.0
 42
1.0
 50
0.0
  0
INSERT
  8
249
 62
5
  6
DASHDOT
  2
TELL_11
 10
9.6672661870503589
 20
4.4964028776978413
 41
1.0
 42
1.0
 50
0.0
  0
INSERT
  8
0
 62
5
  6
DASHDOT
  2
TELL_12
 10
12.814748201438848
 20
4.4964028776978822
 41
1.0
 42
1.0
 50
0.0
  0
ENDBLK
  0
ENDSEC
  0
SECTION
  2
ENTITIES
  0
INSERT
  8
0
 62
50
  6
CONTINUOUS
  2
TELL_1
 10
-2.6978417266187051
 20
0
 41
1.0
 42
1.0
 50
0.0
  0
INSERT
  8
0
 62
5
  6
DASHDOT
  2
TELL_4
 10
-2.6978417266636687
 20
-11.241007194244604
 41
1.0
 42
1.0
 50
0.0
  0
INSERT
  8
0
 62
50
  6
CONTINUOUS
  2
3_50_CMD
 10
11.241007194244604
 20
0
 41
1.0
 42
1.0
 50
0.0
  0
ENDSEC
  0
EOF
