  0
SECTION
  2
HEADER
  9
$ACADVER
  1
AC1009
  9
$EXTMIN
 10
-6.3025210084033612
 20
-18.172268907563026
  9
$EXTMAX
 10
17.857142857142858
 20
6.8277310924369745
  9
$TEXTSTYLE
  7
STANDARD
  9
$DIMLFAC
 40
1
  9
$REGENMODE
 70
1
  9
$DRAGMODE
 70
2
  9
$DIMASO
 70
1
  9
$LTSCALE
 40
1.0000000000
  0
ENDSEC
  0
SECTION
  2
TABLES
  0
TABLE
  2
LTYPE
 70
2
  0
LTYPE
  2
CONTINUOUS
 70
64
  3
CONTINUOUS
 72
65
 73
0
 40
0.0000000000
  0
LTYPE
  2
DASHDOT
 70
64
  3
DASHDOT
 72
65
 73
4
 40
1.0000000000
 49
0.5000000000
 49
-0.2500000000
 49
0.0000000000
 49
-0.2500000000
  0
ENDTAB
  0
TABLE
  2
LAYER
 70
2
  0
LAYER
  2
0
 70
0
 62
2
  6
CONTINUOUS
  0
LAYER
  2
249
 70
0
 62
2
  6
CONTINUOUS
  0
ENDTAB
  0
TABLE
  2
STYLE
 70
0
  0
STYLE
  2
Standard
 70
0
 40
0
 41
1
 50
0
 71
0
 42
2.5
  3
txt
  4

  0
ENDTAB
  0
ENDSEC
  0
SECTION
  2
BLOCKS
  0
BLOCK
  8
0
 62
140
  6
CONTINUOUS
  2
TELL_2
 70
0
 10
-3.1512605042016806
 20
0.78781512605042014
  0
LINE
  8
0
 62
50
  6
CONTINUOUS
 10
-1.680672268907563
 20
1.0504201680672269
 11
-1.1554621848739497
 21
0.52521008403361347
  0
LINE
  8
0
 62
50
  6
CONTINUOUS
 10
-1.1554621848739497
 20
0.52521008403361347
 11
-5.1470588235294121
 21
0.52521008403361347
  0
LINE
  8
0
 62
50
  6
CONTINUOUS
 10
-5.1470588235294121
 20
0.52521008403361347
 11
-4.6218487394957988
 21
1.0504201680672269
  0
LINE
  8
0
 62
50
  6
CONTINUOUS
 10
-4.6218487394957988
 20
1.0504201680672269
 11
-4.5985992690988207
 21
1.0504201680672269
  0
LINE
  8
0
 62
50
  6
CONTINUOUS
 10
-4.5985992671273213
 20
1.0504201680672269
 11
-4.5978611972199435
 21
1.0495175148128342
  0
LINE
  8
0
 62
50
  6
CONTINUOUS
 10
-4.5978611972199435
 20
1.0495175148981948
 11
-4.5945771602992664
 21
1.0504201680672269
  0
LINE
  8
0
 62
50
  6
CONTINUOUS
 10
-4.594577150482408
 20
1.0504201680672269
 11
-4.5329653484807455
 21
1.0504201680672269
  0
LINE
  8
0
 62
50
  6
CONTINUOUS
 10
-4.5329653432362358
 20
1.0504201680672269
 11
-4.529550456256267
 21
1.0492164386732838
  0
LINE
  8
0
 62
50
  6
CONTINUOUS
 10
-4.529550456256267
 20
1.0492164389308227
 11
-4.5244397183127818
 21
1.0504201680672269
  0
LINE
  8
0
 62
50
  6
CONTINUOUS
 10
-4.5244397087947688
 20
1.0504201680672269
 11
-4.432231129717958
 21
1.0504201680672269
  0
LINE
  8
0
 62
50
  6
CONTINUOUS
 10
-4.4322311189108179
 20
1.0504201680672269
 11
-4.4273162076780803
 21
1.0495175145996714
  0
LINE
  8
0
 62
50
  6
CONTINUOUS
 10
-4.4273162076780803
 20
1.0495175146842439
 11
-4.4236056796595618
 21
1.0504201680672269
  0
LINE
  8
0
 62
50
  6
CONTINUOUS
 10
-4.4236056706234406
 20
1.0504201680672269
 11
-1.8789153377798729
 21
1.0504201680672269
  0
LINE
  8
0
 62
50
  6
CONTINUOUS
 10
-1.8789153287437754
 20
1.0504201680672269
 11
-1.8752048007252811
 21
1.0495175146842199
  0
LINE
  8
0
 62
50
  6
CONTINUOUS
 10
-1.8752048007252811
 20
1.0495175145996714
 11
-1.8702898894925795
 21
1.0504201680672269
  0
LINE
  8
0
 62
50
  6
CONTINUOUS
 10
-1.8702898786854751
 20
1.0504201680672269
 11
-1.7780812996086284
 21
1.0504201680672269
  0
LINE
  8
0
 62
50
  6
CONTINUOUS
 10
-1.7780812900906635
 20
1.0504201680672269
 11
-1.7729705521470946
 21
1.0492164389308227
  0
LINE
  8
0
 62
50
  6
CONTINUOUS
 10
-1.7729705521470946
 20
1.0492164386732838
 11
-1.7695556651671256
 21
1.0504201680672269
  0
LINE
  8
0
 62
50
  6
CONTINUOUS
 10
-1.7695556599225917
 20
1.0504201680672269
 11
-1.7079438579208821
 21
1.0504201680672269
  0
LINE
  8
0
 62
50
  6
CONTINUOUS
 10
-1.7079438481041191
 20
1.0504201680672269
 11
-1.7046598111834175
 21
1.0495175148982188
  0
LINE
  8
0
 62
50
  6
CONTINUOUS
 10
-1.7046598111834175
 20
1.0495175148128342
 11
-1.7039217412760401
 21
1.0504201680672269
  0
LINE
  8
0
 62
50
  6
CONTINUOUS
 10
-1.7039217393045527
 20
1.0504201680672269
 11
-1.680672268907563
 21
1.0504201680672269
  0
ENDBLK
  0
BLOCK
  8
249
 62
5
  6
DASHDOT
  2
TELL_3
 70
0
 10
-3.1512605042016806
 20
5.2521008403361344
  0
LINE
  8
249
 62
50
  6
CONTINUOUS
 10
-3.1512605042016806
 20
6.2830834638890467
 11
-4.0441176470588234
 21
5.767592152112579
  0
LINE
  8
249
 62
50
  6
CONTINUOUS
 10
-4.0441176470588234
 20
5.767592152112579
 11
-4.0441176470588234
 21
4.7366095285596899
  0
LINE
  8
249
 62
50
  6
CONTINUOUS
 10
-4.0441176470588234
 20
4.7366095285596899
 11
-3.1512605042016806
 21
4.2211182167832222
  0
LINE
  8
249
 62
50
  6
CONTINUOUS
 10
-3.1512605042016806
 20
4.2211182167832222
 11
-2.2584033613445378
 21
4.7366095285596899
  0
LINE
  8
249
 62
50
  6
CONTINUOUS
 10
-2.2584033613445378
 20
4.7366095285596899
 11
-2.2584033613445378
 21
5.767592152112579
  0
LINE
  8
249
 62
50
  6
CONTINUOUS
 10
-2.2584033613445378
 20
5.767592152112579
 11
-3.1512605042016806
 21
6.2830834638890467
  0
CIRCLE
  8
249
 62
50
  6
CONTINUOUS
 10
-3.1512605042016806
 20
5.2521008403361344
 40
0.89285714285714302
  0
LINE
  8
249
 62
5
  6
DASHDOT
 10
-3.1512605042016806
 20
4.0110341831697767
 11
-3.1512605042016806
 21
6.4931674975024922
  0
LINE
  8
249
 62
5
  6
DASHDOT
 10
-4.3923271613680264
 20
5.2521008403361344
 11
-1.9101938470353348
 21
5.2521008403361344
  0
ENDBLK
  0
BLOCK
  8
249
 62
50
  6
CONTINUOUS
  2
TELL_1
 70
0
 10
-3.1512605042016806
 20
0
  0
INSERT
  8
0
 62
140
  6
CONTINUOUS
  2
TELL_2
 10
-3.1512605042016806
 20
0.78781512605042014
 41
1.0
 42
1.0
 50
0.0
  0
LINE
  8
0
 62
50
  6
CONTINUOUS
 10
-1.680672268907563
 20
1.0504201680672269
 11
-1.1554621848739497
 21
0.52521008403361347
  0
LINE
  8
0
 62
50
  6
CONTINUOUS
 10
-5.1470588235294121
 20
0.52521008403361347
 11
-4.6218487394957988
 21
1.0504201680672269
  0
LINE
  8
0
 62
50
  6
CONTINUOUS
 10
-4.5978611972199435
 20
1.0495175148128342
 11
-4.5985992671273213
 21
1.0504201680672269
  0
LINE
  8
0
 62
50
  6
CONTINUOUS
 10
-4.6218487394957988
 20
1.0504201680672269
 11
-4.6218487394957988
 21
3.7815126050420167
  0
LINE
  8
0
 62
50
  6
CONTINUOUS
 10
-4.6218487394957988
 20
6.7226890756302522
 11
-4.6218487394957988
 21
6.8277310924369745
  0
LINE
  8
0
 62
50
  6
CONTINUOUS
 10
-1.7039217412760401
 20
1.0504201680672269
 11
-1.7046598111834175
 21
1.0495175148128342
  0
LINE
  8
0
 62
50
  6
CONTINUOUS
 10
-1.7039217393045527
 20
1.0504201680672269
 11
-1.680672268907563
 21
1.0504201680672269
  0
LINE
  8
0
 62
50
  6
CONTINUOUS
 10
-4.6218487394957988
 20
1.0504201680672269
 11
-4.5985992690988207
 21
1.0504201680672269
  0
LINE
  8
0
 62
50
  6
CONTINUOUS
 10
-4.529550456256267
 20
1.0492164386732838
 11
-4.5329653432362358
 21
1.0504201680672269
  0
LINE
  8
0
 62
50
  6
CONTINUOUS
 10
-4.5945771602992664
 20
1.0504201680672269
 11
-4.5978611972199435
 21
1.0495175148981948
  0
LINE
  8
0
 62
50
  6
CONTINUOUS
 10
-1.7695556651671256
 20
1.0504201680672269
 11
-1.7729705521470946
 21
1.0492164386732838
  0
LINE
  8
0
 62
50
  6
CONTINUOUS
 10
-1.7046598111834175
 20
1.0495175148982188
 11
-1.7079438481041191
 21
1.0504201680672269
  0
LINE
  8
0
 62
50
  6
CONTINUOUS
 10
-4.6218487394957988
 20
6.8277310924369745
 11
-1.680672268907563
 21
6.8277310924369745
  0
LINE
  8
0
 62
50
  6
CONTINUOUS
 10
-4.4273162076780803
 20
1.0495175145996714
 11
-4.4322311189108179
 21
1.0504201680672269
  0
LINE
  8
0
 62
50
  6
CONTINUOUS
 10
-4.5244397183127818
 20
1.0504201680672269
 11
-4.529550456256267
 21
1.0492164389308227
  0
LINE
  8
0
 62
50
  6
CONTINUOUS
 10
-1.8702898894925795
 20
1.0504201680672269
 11
-1.8752048007252811
 21
1.0495175145996714
  0
LINE
  8
0
 62
50
  6
CONTINUOUS
 10
-1.7729705521470946
 20
1.0492164389308227
 11
-1.7780812900906635
 21
1.0504201680672269
  0
LINE
  8
0
 62
50
  6
CONTINUOUS
 10
-4.4236056796595618
 20
1.0504201680672269
 11
-4.4273162076780803
 21
1.0495175146842439
  0
LINE
  8
0
 62
50
  6
CONTINUOUS
 10
-1.8752048007252811
 20
1.0495175146842199
 11
-1.8789153287437754
 21
1.0504201680672269
  0
LINE
  8
0
 62
50
  6
CONTINUOUS
 10
-1.7695556599225917
 20
1.0504201680672269
 11
-1.7079438579208821
 21
1.0504201680672269
  0
LINE
  8
0
 62
50
  6
CONTINUOUS
 10
-4.594577150482408
 20
1.0504201680672269
 11
-4.5329653484807455
 21
1.0504201680672269
  0
LINE
  8
0
 62
5
  6
CONTINUOUS
 10
-4.3067226890756301
 20
1.0504201680672269
 11
-4.3067226890756301
 21
3.7815126050420167
  0
LINE
  8
0
 62
5
  6
CONTINUOUS
 10
-1.9957983193277311
 20
3.7815126050420167
 11
-1.9957983193277311
 21
1.0504201680672269
  0
LINE
  8
0
 62
50
  6
CONTINUOUS
 10
-1.8702898786854751
 20
1.0504201680672269
 11
-1.7780812996086284
 21
1.0504201680672269
  0
LINE
  8
0
 62
50
  6
CONTINUOUS
 10
-4.5244397087947688
 20
1.0504201680672269
 11
-4.432231129717958
 21
1.0504201680672269
  0
LINE
  8
0
 62
50
  6
CONTINUOUS
 10
-5.3046218487394956
 20
3.7815126050420167
 11
-5.3046218487394956
 21
6.7226890756302522
  0
LINE
  8
0
 62
50
  6
CONTINUOUS
 10
-5.3046218487394956
 20
6.7226890756302522
 11
-0.99789915966386555
 21
6.7226890756302522
  0
LINE
  8
0
 62
50
  6
CONTINUOUS
 10
-0.99789915966386555
 20
6.7226890756302522
 11
-0.99789915966386555
 21
3.7815126050420167
  0
LINE
  8
0
 62
50
  6
CONTINUOUS
 10
-5.3046218487394956
 20
3.7815126050420167
 11
-0.99789915966386555
 21
3.7815126050420167
  0
LINE
  8
0
 62
50
  6
CONTINUOUS
 10
-4.4236056706234406
 20
1.0504201680672269
 11
-1.8789153377798729
 21
1.0504201680672269
  0
LINE
  8
0
 62
50
  6
CONTINUOUS
 10
-1.680672268907563
 20
1.0504201680672269
 11
-1.680672268907563
 21
3.7815126050420167
  0
LINE
  8
0
 62
50
  6
CONTINUOUS
 10
-1.680672268907563
 20
6.7226890756302522
 11
-1.680672268907563
 21
6.8277310924369745
  0
LINE
  8
0
 62
50
  6
CONTINUOUS
 10
0
 20
0.52521008403361347
 11
0
 21
0
  0
LINE
  8
0
 62
50
  6
CONTINUOUS
 10
-6.3025210084033612
 20
0
 11
-6.3025210084033612
 21
0.52521008403361347
  0
LINE
  8
0
 62
50
  6
CONTINUOUS
 10
-6.3025210084033612
 20
0.52521008403361347
 11
-5.1470588235294121
 21
0.52521008403361347
  0
LINE
  8
0
 62
50
  6
CONTINUOUS
 10
-5.1470588235294121
 20
0.52521008403361347
 11
-1.1554621848739497
 21
0.52521008403361347
  0
LINE
  8
0
 62
50
  6
CONTINUOUS
 10
-1.1554621848739497
 20
0.52521008403361347
 11
0
 21
0.52521008403361347
  0
LINE
  8
0
 62
50
  6
CONTINUOUS
 10
-6.3025210084033612
 20
0
 11
0
 21
0
  0
LINE
  8
0
 62
50
  6
CONTINUOUS
 10
-5.2521008403361344
 20
0
 11
-5.2521008403361344
 21
0.52521008403361347
  0
LINE
  8
0
 62
50
  6
CONTINUOUS
 10
-1.0504201680672269
 20
0.52521008403361347
 11
-1.0504201680672269
 21
0
  0
LINE
  8
0
 62
5
  6
DASHDOT
 10
-3.1512605042016806
 20
-0.31512605042016806
 11
-3.1512605042016806
 21
1.365546218487395
  0
INSERT
  8
249
 62
5
  6
DASHDOT
  2
TELL_3
 10
-3.1512605042016806
 20
5.2521008403361344
 41
1.0
 42
1.0
 50
0.0
  0
LINE
  8
0
 62
5
  6
CONTINUOUS
 10
-4.6743697478991599
 20
3.9390756302521011
 11
-4.6743697478991599
 21
6.5651260504201678
  0
LINE
  8
0
 62
5
  6
CONTINUOUS
 10
-1.6281512605042017
 20
3.9390756302521011
 11
-1.6281512605042017
 21
6.5651260504201678
  0
ENDBLK
  0
BLOCK
  8
249
 62
5
  6
DASHDOT
  2
TELL_5
 70
0
 10
-3.1512605042016806
 20
-13.130252100840336
  0
LINE
  8
249
 62
50
  6
CONTINUOUS
 10
-2.1218487394958032
 20
-13.182773109243694
 11
-2.1218487394958014
 21
-13.796588705729382
  0
ARC
  8
249
 62
50
  6
CONTINUOUS
 10
-2.3792016806722667
 20
-13.350840336134445
 40
0.51470588235294124
 50
227.54026094004348
 51
300
  0
ARC
  8
249
 62
50
  6
CONTINUOUS
 10
-3.1512605042016806
 20
-13.130252100840336
 40
0.73529411764705888
 50
234.72863805591317
 51
305.27136194408683
  0
ARC
  8
249
 62
50
  6
CONTINUOUS
 10
-3.9233193277310949
 20
-13.350840336134445
 40
0.51470588235294124
 50
240
 51
312.45973905995652
  0
LINE
  8
249
 62
50
  6
CONTINUOUS
 10
-4.1806722689075571
 20
-13.796588705729382
 11
-4.1806722689075579
 21
-13.182773109243701
  0
LINE
  8
249
 62
50
  6
CONTINUOUS
 10
-2.7266651928046195
 20
-13.730565569776354
 11
-2.7266651928046208
 21
-13.182773109243698
  0
LINE
  8
249
 62
50
  6
CONTINUOUS
 10
-3.5758558155987399
 20
-13.730565569776354
 11
-3.5758558155987408
 21
-13.182773109243698
  0
LINE
  8
249
 62
50
  6
CONTINUOUS
 10
-2.3792016806722649
 20
-13.865546218487395
 11
-3.9233193277310936
 21
-13.865546218487395
  0
LINE
  8
249
 62
5
  6
CONTINUOUS
 10
-2.6260504201680672
 20
-13.130252100840336
 11
-2.6260504201680703
 21
-11.129201680672274
  0
LINE
  8
249
 62
5
  6
CONTINUOUS
 10
-2.6260504201680703
 20
-11.129201680672274
 11
-2.7258403361344614
 21
-11.029411764705882
  0
LINE
  8
249
 62
5
  6
CONTINUOUS
 10
-2.7258403361344614
 20
-11.029411764705882
 11
-3.5766806722689179
 21
-11.029411764705882
  0
LINE
  8
249
 62
5
  6
CONTINUOUS
 10
-3.5766806722689179
 20
-11.029411764705882
 11
-3.676470588235297
 21
-11.129201680672274
  0
LINE
  8
249
 62
5
  6
CONTINUOUS
 10
-3.676470588235297
 20
-11.129201680672274
 11
-3.6764705882352944
 21
-13.130252100840336
  0
LINE
  8
249
 62
5
  6
CONTINUOUS
 10
-2.6260504201680703
 20
-11.129201680672274
 11
-3.676470588235297
 21
-11.129201680672274
  0
LINE
  8
249
 62
50
  6
CONTINUOUS
 10
-4.1806722689075579
 20
-13.182773109243701
 11
-2.1218487394958032
 21
-13.182773109243694
  0
LINE
  8
249
 62
50
  6
CONTINUOUS
 10
-2.2584033613445378
 20
-13.182773109243698
 11
-2.2584033613445378
 21
-13.130252100840336
  0
LINE
  8
249
 62
50
  6
CONTINUOUS
 10
-4.0441176470588234
 20
-13.130252100840336
 11
-4.0441176470588234
 21
-13.182773109243698
  0
LINE
  8
249
 62
5
  6
CONTINUOUS
 10
-2.7258403361344614
 20
-11.029411764705882
 11
-2.7258403361344588
 21
-13.130252100840336
  0
LINE
  8
249
 62
5
  6
CONTINUOUS
 10
-3.5766806722689179
 20
-11.029411764705882
 11
-3.5766806722689028
 21
-13.130252100840336
  0
ENDBLK
  0
BLOCK
  8
0
 62
5
  6
DASHDOT
  2
TELL_4
 70
0
 10
-3.1512605042016806
 20
-11.029411764705882
  0
LINE
  8
0
 62
50
  6
CONTINUOUS
 10
-5.2521008403361344
 20
-4.2016806722689077
 11
-1.0504201680672269
 21
-4.2016806722689077
  0
LINE
  8
0
 62
50
  6
CONTINUOUS
 10
-1.0504201680672269
 20
-4.2016806722689077
 11
0
 21
-4.8081410390647354
  0
LINE
  8
0
 62
50
  6
CONTINUOUS
 10
0
 20
-4.8081410390647354
 11
0
 21
-17.250682490347053
  0
LINE
  8
0
 62
50
  6
CONTINUOUS
 10
0
 20
-17.250682490347053
 11
-1.0504201680672269
 21
-17.857142857142858
  0
LINE
  8
0
 62
50
  6
CONTINUOUS
 10
-1.0504201680672269
 20
-17.857142857142858
 11
-5.2521008403361344
 21
-17.857142857142858
  0
LINE
  8
0
 62
50
  6
CONTINUOUS
 10
-5.2521008403361344
 20
-17.857142857142858
 11
-6.3025210084033612
 21
-17.250682490347078
  0
LINE
  8
0
 62
50
  6
CONTINUOUS
 10
-6.3025210084033612
 20
-17.250682490347078
 11
-6.3025210084033612
 21
-4.8081410390647115
  0
LINE
  8
0
 62
50
  6
CONTINUOUS
 10
-6.3025210084033612
 20
-4.8081410390647115
 11
-5.2521008403361344
 21
-4.2016806722689077
  0
LINE
  8
0
 62
50
  6
CONTINUOUS
 10
-2.5735294117647061
 20
-7.6155462184873954
 11
-2.5735294117647061
 21
-5.6197478991596643
  0
LINE
  8
0
 62
50
  6
CONTINUOUS
 10
-3.7289915966386555
 20
-5.6197478991596643
 11
-3.7289915966386555
 21
-7.6155462184873954
  0
LINE
  8
0
 62
50
  6
CONTINUOUS
 10
-3.7289915966386555
 20
-14.443277310924371
 11
-3.7289915966386555
 21
-16.439075630252102
  0
LINE
  8
0
 62
50
  6
CONTINUOUS
 10
-2.5735294117647061
 20
-16.439075630252102
 11
-2.5735294117647061
 21
-14.443277310924371
  0
LINE
  8
0
 62
50
  6
CONTINUOUS
 10
-1.6281512605042017
 20
-13.130252100840336
 11
-4.6743697478991599
 21
-13.130252100840336
  0
LINE
  8
0
 62
50
  6
CONTINUOUS
 10
-5.3046218487394956
 20
-12.5
 11
-5.3046218487394956
 21
-12.184873949579831
  0
LINE
  8
0
 62
50
  6
CONTINUOUS
 10
-5.3046218487394956
 20
-12.184873949579831
 11
-4.9894957983193278
 21
-12.184873949579831
  0
LINE
  8
0
 62
50
  6
CONTINUOUS
 10
-4.9894957983193278
 20
-12.184873949579831
 11
-4.9894957983193278
 21
-12.5
  0
LINE
  8
0
 62
50
  6
CONTINUOUS
 10
-4.6743697478991599
 20
-12.815126050420169
 11
-1.6281512605042017
 21
-12.815126050420169
  0
LINE
  8
0
 62
50
  6
CONTINUOUS
 10
-1.3130252100840336
 20
-12.5
 11
-1.3130252100840336
 21
-12.184873949579831
  0
LINE
  8
0
 62
50
  6
CONTINUOUS
 10
-1.3130252100840336
 20
-12.184873949579831
 11
-0.99789915966386555
 21
-12.184873949579831
  0
LINE
  8
0
 62
50
  6
CONTINUOUS
 10
-0.99789915966386555
 20
-12.184873949579831
 11
-0.99789915966386555
 21
-12.5
  0
LINE
  8
0
 62
50
  6
CONTINUOUS
 10
-1.680672268907563
 20
-9.8739495798319332
 11
-1.680672268907563
 21
-12.184873949579831
  0
LINE
  8
0
 62
50
  6
CONTINUOUS
 10
-1.9957983193277311
 20
-12.5
 11
-4.3067226890756301
 21
-12.5
  0
LINE
  8
0
 62
50
  6
CONTINUOUS
 10
-4.6218487394957988
 20
-12.184873949579831
 11
-4.6218487394957988
 21
-9.8739495798319332
  0
LINE
  8
0
 62
50
  6
CONTINUOUS
 10
-4.3067226890756301
 20
-9.5588235294117645
 11
-1.9957983193277311
 21
-9.5588235294117645
  0
LINE
  8
0
 62
50
  6
CONTINUOUS
 10
-4.3592436974789921
 20
-9.8739495798319332
 11
-4.3592436974789921
 21
-12.184873949579831
  0
LINE
  8
0
 62
50
  6
CONTINUOUS
 10
-4.3067226890756301
 20
-12.237394957983193
 11
-1.9957983193277311
 21
-12.237394957983193
  0
LINE
  8
0
 62
50
  6
CONTINUOUS
 10
-1.9432773109243697
 20
-12.184873949579831
 11
-1.9432773109243697
 21
-9.8739495798319332
  0
LINE
  8
0
 62
50
  6
CONTINUOUS
 10
-1.9957983193277311
 20
-9.8214285714285712
 11
-4.3067226890756301
 21
-9.8214285714285712
  0
ARC
  8
0
 62
50
  6
CONTINUOUS
 10
-3.1512605042016806
 20
-7.6155462184873954
 40
0.57773109243697196
 50
180
 51
0
  0
ARC
  8
0
 62
50
  6
CONTINUOUS
 10
-3.1512605042017046
 20
-5.6197478991596643
 40
0.57773109243697196
 50
0
 51
180
  0
ARC
  8
0
 62
50
  6
CONTINUOUS
 10
-3.1512605042016806
 20
-16.439075630252102
 40
0.57773109243696474
 50
180
 51
0
  0
ARC
  8
0
 62
50
  6
CONTINUOUS
 10
-3.1512605042016806
 20
-14.443277310924371
 40
0.5777310924369794
 50
140.47880364135807
 51
180
  0
ARC
  8
0
 62
50
  6
CONTINUOUS
 10
-3.1512605042016806
 20
-14.443277310924371
 40
0.5777310924369794
 50
0
 51
39.521196358641944
  0
ARC
  8
0
 62
50
  6
CONTINUOUS
 10
-1.9957983193277311
 20
-12.184873949579831
 40
0.052521008403361345
 50
270
 51
0
  0
ARC
  8
0
 62
50
  6
CONTINUOUS
 10
-4.3067226890756301
 20
-12.184873949579831
 40
0.052521008403361345
 50
180
 51
270
  0
ARC
  8
0
 62
50
  6
CONTINUOUS
 10
-4.3067226890756301
 20
-9.8739495798319332
 40
0.052521008403361345
 50
90
 51
180
  0
ARC
  8
0
 62
50
  6
CONTINUOUS
 10
-1.9957983193277311
 20
-9.8739495798319332
 40
0.052521008403361345
 50
0
 51
90
  0
ARC
  8
0
 62
50
  6
CONTINUOUS
 10
-4.3067226890756301
 20
-9.8739495798319332
 40
0.31512605042016806
 50
90
 51
180
  0
ARC
  8
0
 62
50
  6
CONTINUOUS
 10
-1.9957983193277311
 20
-9.8739495798319332
 40
0.31512605042016806
 50
0
 51
90
  0
ARC
  8
0
 62
50
  6
CONTINUOUS
 10
-4.3067226890756301
 20
-12.184873949579831
 40
0.31512605042016806
 50
180
 51
270
  0
ARC
  8
0
 62
50
  6
CONTINUOUS
 10
-1.9957983193277311
 20
-12.184873949579831
 40
0.31512605042016806
 50
270
 51
0
  0
ARC
  8
0
 62
50
  6
CONTINUOUS
 10
-4.6743697478991715
 20
-12.5
 40
0.31512605042016806
 50
180
 51
270
  0
ARC
  8
0
 62
50
  6
CONTINUOUS
 10
-1.6281512605041897
 20
-12.5
 40
0.31512605042016806
 50
270
 51
0
  0
ARC
  8
0
 62
50
  6
CONTINUOUS
 10
-4.6743697478991599
 20
-12.5
 40
0.63025210084033612
 50
180
 51
270
  0
ARC
  8
0
 62
50
  6
CONTINUOUS
 10
-1.6281512605042017
 20
-12.5
 40
0.63025210084033612
 50
270
 51
0
  0
INSERT
  8
249
 62
5
  6
DASHDOT
  2
TELL_5
 10
-3.1512605042016806
 20
-13.130252100840336
 41
1.0
 42
1.0
 50
0.0
  0
LINE
  8
0
 62
5
  6
DASHDOT
 10
-3.1512605042016806
 20
-18.172268907563026
 11
-3.1512605042016806
 21
-3.8865546218487395
  0
LINE
  8
0
 62
5
  6
DASHDOT
 10
-4.0441176470588118
 20
-6.6176470588235299
 11
-2.2584033613445498
 21
-6.6176470588235299
  0
LINE
  8
0
 62
5
  6
DASHDOT
 10
-4.0441176470588118
 20
-15.441176470588236
 11
-2.2584033613445498
 21
-15.441176470588236
  0
ENDBLK
  0
BLOCK
  8
0
 62
140
  6
CONTINUOUS
  2
TELL_6
 70
0
 10
11.029411764705882
 20
0.78781512605042014
  0
LINE
  8
0
 62
50
  6
CONTINUOUS
 10
12.5
 20
1.0504201680672269
 11
13.025210084033613
 21
0.52521008403361347
  0
LINE
  8
0
 62
50
  6
CONTINUOUS
 10
13.025210084033613
 20
0.52521008403361347
 11
9.0336134453781511
 21
0.52521008403361347
  0
LINE
  8
0
 62
50
  6
CONTINUOUS
 10
9.0336134453781511
 20
0.52521008403361347
 11
9.5588235294117645
 21
1.0504201680672269
  0
LINE
  8
0
 62
50
  6
CONTINUOUS
 10
9.5588235294117645
 20
1.0504201680672269
 11
9.582072999808755
 21
1.0504201680672269
  0
LINE
  8
0
 62
50
  6
CONTINUOUS
 10
9.582073001780218
 20
1.0504201680672269
 11
9.5828110716876189
 21
1.0495175148128342
  0
LINE
  8
0
 62
50
  6
CONTINUOUS
 10
9.5828110716876189
 20
1.0495175148981948
 11
9.5860951086082977
 21
1.0504201680672269
  0
LINE
  8
0
 62
50
  6
CONTINUOUS
 10
9.5860951184252041
 20
1.0504201680672269
 11
9.6477069204267458
 21
1.0504201680672269
  0
LINE
  8
0
 62
50
  6
CONTINUOUS
 10
9.647706925671292
 20
1.0504201680672269
 11
9.6511218126513079
 21
1.0492164386732838
  0
LINE
  8
0
 62
50
  6
CONTINUOUS
 10
9.6511218126513079
 20
1.0492164389308227
 11
9.6562325505947939
 21
1.0504201680672269
  0
LINE
  8
0
 62
50
  6
CONTINUOUS
 10
9.6562325601129615
 20
1.0504201680672269
 11
9.7484411391895573
 21
1.0504201680672269
  0
LINE
  8
0
 62
50
  6
CONTINUOUS
 10
9.748441149996685
 20
1.0504201680672269
 11
9.7533560612294821
 21
1.0495175145996476
  0
LINE
  8
0
 62
50
  6
CONTINUOUS
 10
9.7533560612294821
 20
1.0495175146842439
 11
9.7570665892480726
 21
1.0504201680672269
  0
LINE
  8
0
 62
50
  6
CONTINUOUS
 10
9.7570665982841707
 20
1.0504201680672269
 11
12.301756931127596
 21
1.0504201680672269
  0
LINE
  8
0
 62
50
  6
CONTINUOUS
 10
12.30175694016374
 20
1.0504201680672269
 11
12.305467468182282
 21
1.0495175146842439
  0
LINE
  8
0
 62
50
  6
CONTINUOUS
 10
12.305467468182282
 20
1.0495175145996714
 11
12.310382379415055
 21
1.0504201680672269
  0
LINE
  8
0
 62
50
  6
CONTINUOUS
 10
12.310382390222207
 20
1.0504201680672269
 11
12.402590969298995
 21
1.0504201680672269
  0
LINE
  8
0
 62
50
  6
CONTINUOUS
 10
12.402590978816924
 20
1.0504201680672269
 11
12.407701716760457
 21
1.0492164389308227
  0
LINE
  8
0
 62
50
  6
CONTINUOUS
 10
12.407701716760457
 20
1.0492164386732601
 11
12.411116603740474
 21
1.0504201680672269
  0
LINE
  8
0
 62
50
  6
CONTINUOUS
 10
12.411116608984925
 20
1.0504201680672269
 11
12.472728410986658
 21
1.0504201680672269
  0
LINE
  8
0
 62
50
  6
CONTINUOUS
 10
12.47272842080354
 20
1.0504201680672269
 11
12.476012457724146
 21
1.0495175148982427
  0
LINE
  8
0
 62
50
  6
CONTINUOUS
 10
12.47601245772417
 20
1.0495175148128104
 11
12.476750527631546
 21
1.0504201680672269
  0
LINE
  8
0
 62
50
  6
CONTINUOUS
 10
12.476750529603011
 20
1.0504201680672269
 11
12.5
 21
1.0504201680672269
  0
ENDBLK
  0
BLOCK
  8
249
 62
5
  6
DASHDOT
  2
TELL_7
 70
0
 10
13.130252100840336
 20
5.2521008403361344
  0
LINE
  8
249
 62
50
  6
CONTINUOUS
 10
13.182773109243694
 20
6.2815126050420602
 11
13.796588705729382
 21
6.281512605042062
  0
ARC
  8
249
 62
50
  6
CONTINUOUS
 10
13.350840336134445
 20
6.0241596638655848
 40
0.51470588235294124
 50
317.54026094004342
 51
30
  0
ARC
  8
249
 62
50
  6
CONTINUOUS
 10
13.130252100840336
 20
5.2521008403361824
 40
0.73529411764705888
 50
324.72863805591317
 51
35.271361944086834
  0
ARC
  8
249
 62
50
  6
CONTINUOUS
 10
13.350840336134445
 20
4.48004201680678
 40
0.51470588235294124
 50
330
 51
42.459739059956519
  0
LINE
  8
249
 62
50
  6
CONTINUOUS
 10
13.796588705729382
 20
4.2226890756303055
 11
13.182773109243701
 21
4.2226890756303046
  0
LINE
  8
249
 62
50
  6
CONTINUOUS
 10
13.730565569776354
 20
5.6766961517332328
 11
13.182773109243698
 21
5.6766961517332302
  0
LINE
  8
249
 62
50
  6
CONTINUOUS
 10
13.730565569776354
 20
4.8275055289391346
 11
13.182773109243698
 21
4.8275055289391346
  0
LINE
  8
249
 62
50
  6
CONTINUOUS
 10
13.865546218487395
 20
6.0241596638655865
 11
13.865546218487395
 21
4.4800420168067809
  0
LINE
  8
249
 62
5
  6
CONTINUOUS
 10
13.130252100840336
 20
5.7773109243697958
 11
11.129201680672274
 21
5.7773109243697913
  0
LINE
  8
249
 62
5
  6
CONTINUOUS
 10
11.129201680672274
 20
5.7773109243697913
 11
11.029411764705882
 21
5.6775210084033985
  0
LINE
  8
249
 62
5
  6
CONTINUOUS
 10
11.029411764705882
 20
5.6775210084033985
 11
11.029411764705882
 21
4.8266806722689557
  0
LINE
  8
249
 62
5
  6
CONTINUOUS
 10
11.029411764705882
 20
4.8266806722689557
 11
11.129201680672274
 21
4.7268907563025646
  0
LINE
  8
249
 62
5
  6
CONTINUOUS
 10
11.129201680672274
 20
4.7268907563025646
 11
13.130252100840336
 21
4.7268907563025691
  0
LINE
  8
249
 62
5
  6
CONTINUOUS
 10
11.129201680672274
 20
5.7773109243697913
 11
11.129201680672274
 21
4.7268907563025646
  0
LINE
  8
249
 62
50
  6
CONTINUOUS
 10
13.182773109243701
 20
4.2226890756303046
 11
13.182773109243694
 21
6.2815126050420602
  0
LINE
  8
249
 62
50
  6
CONTINUOUS
 10
13.182773109243698
 20
6.1449579831933248
 11
13.130252100840336
 21
6.1449579831933248
  0
LINE
  8
249
 62
50
  6
CONTINUOUS
 10
13.130252100840336
 20
4.3592436974790392
 11
13.182773109243698
 21
4.3592436974790392
  0
LINE
  8
249
 62
5
  6
CONTINUOUS
 10
11.029411764705882
 20
5.6775210084033985
 11
13.130252100840336
 21
5.6775210084034047
  0
LINE
  8
249
 62
5
  6
CONTINUOUS
 10
11.029411764705882
 20
4.8266806722689557
 11
13.130252100840336
 21
4.8266806722689601
  0
ENDBLK
  0
BLOCK
  8
249
 62
5
  6
DASHDOT
  2
TELL_8
 70
0
 10
11.029411764705882
 20
5.2521008403361344
  0
CIRCLE
  8
249
 62
50
  6
CONTINUOUS
 10
11.029411764705882
 20
5.2521008403361824
 40
0.4285714285714286
  0
ARC
  8
249
 62
5
  6
CONTINUOUS
 10
11.029411764705882
 20
5.2521008403361824
 40
0.52521008403361347
 50
175.00000000000003
 51
90
  0
LINE
  8
249
 62
5
  6
DASHDOT
 10
11.029411764705882
 20
5.9873949579832413
 11
11.029411764705882
 21
4.5168067226891235
  0
ENDBLK
  0
BLOCK
  8
0
 62
50
  6
CONTINUOUS
  2
3_50_CM
 70
0
 10
11.029411764705882
 20
0
  0
INSERT
  8
0
 62
140
  6
CONTINUOUS
  2
TELL_6
 10
11.029411764705882
 20
0.78781512605042014
 41
1.0
 42
1.0
 50
0.0
  0
LINE
  8
0
 62
50
  6
CONTINUOUS
 10
12.5
 20
1.0504201680672269
 11
13.025210084033613
 21
0.52521008403361347
  0
LINE
  8
0
 62
50
  6
CONTINUOUS
 10
9.0336134453781511
 20
0.52521008403361347
 11
9.5588235294117645
 21
1.0504201680672269
  0
LINE
  8
0
 62
50
  6
CONTINUOUS
 10
12.476750527631546
 20
1.0504201680672269
 11
12.47601245772417
 21
1.0495175148128104
  0
LINE
  8
0
 62
50
  6
CONTINUOUS
 10
12.5
 20
1.0504201680672269
 11
12.5
 21
3.7815126050420167
  0
LINE
  8
0
 62
50
  6
CONTINUOUS
 10
12.5
 20
6.7226890756302522
 11
12.5
 21
6.8277310924369745
  0
LINE
  8
0
 62
50
  6
CONTINUOUS
 10
9.5828110716876189
 20
1.0495175148128342
 11
9.582073001780218
 21
1.0504201680672269
  0
LINE
  8
0
 62
50
  6
CONTINUOUS
 10
9.5588235294117645
 20
1.0504201680672269
 11
9.5588235294117645
 21
6.8277310924369745
  0
LINE
  8
0
 62
50
  6
CONTINUOUS
 10
9.5588235294117645
 20
1.0504201680672269
 11
9.582072999808755
 21
1.0504201680672269
  0
LINE
  8
0
 62
50
  6
CONTINUOUS
 10
12.476750529603011
 20
1.0504201680672269
 11
12.5
 21
1.0504201680672269
  0
LINE
  8
0
 62
50
  6
CONTINUOUS
 10
9.5588235294117645
 20
6.8277310924369745
 11
12.5
 21
6.8277310924369745
  0
LINE
  8
0
 62
50
  6
CONTINUOUS
 10
9.5860951086082977
 20
1.0504201680672269
 11
9.5828110716876189
 21
1.0495175148981948
  0
LINE
  8
0
 62
50
  6
CONTINUOUS
 10
9.6511218126513079
 20
1.0492164386732838
 11
9.647706925671292
 21
1.0504201680672269
  0
LINE
  8
0
 62
50
  6
CONTINUOUS
 10
12.476012457724146
 20
1.0495175148982427
 11
12.47272842080354
 21
1.0504201680672269
  0
LINE
  8
0
 62
50
  6
CONTINUOUS
 10
12.411116603740474
 20
1.0504201680672269
 11
12.407701716760457
 21
1.0492164386732601
  0
LINE
  8
0
 62
50
  6
CONTINUOUS
 10
12.407701716760457
 20
1.0492164389308227
 11
12.402590978816924
 21
1.0504201680672269
  0
LINE
  8
0
 62
50
  6
CONTINUOUS
 10
12.310382379415055
 20
1.0504201680672269
 11
12.305467468182282
 21
1.0495175145996714
  0
LINE
  8
0
 62
50
  6
CONTINUOUS
 10
9.6562325505947939
 20
1.0504201680672269
 11
9.6511218126513079
 21
1.0492164389308227
  0
LINE
  8
0
 62
50
  6
CONTINUOUS
 10
9.7533560612294821
 20
1.0495175145996476
 11
9.748441149996685
 21
1.0504201680672269
  0
LINE
  8
0
 62
50
  6
CONTINUOUS
 10
12.305467468182282
 20
1.0495175146842439
 11
12.30175694016374
 21
1.0504201680672269
  0
LINE
  8
0
 62
50
  6
CONTINUOUS
 10
9.7570665892480726
 20
1.0504201680672269
 11
9.7533560612294821
 21
1.0495175146842439
  0
LINE
  8
0
 62
50
  6
CONTINUOUS
 10
12.411116608984925
 20
1.0504201680672269
 11
12.472728410986658
 21
1.0504201680672269
  0
LINE
  8
0
 62
50
  6
CONTINUOUS
 10
12.184873949579831
 20
6.7226890756302522
 11
12.184873949579831
 21
3.7815126050420167
  0
LINE
  8
0
 62
5
  6
CONTINUOUS
 10
12.184873949579879
 20
3.6764705882352944
 11
12.184873949579879
 21
1.0504201680672269
  0
LINE
  8
0
 62
5
  6
CONTINUOUS
 10
9.8739495798319812
 20
1.0504201680672269
 11
9.8739495798319812
 21
6.8277310924369745
  0
LINE
  8
0
 62
50
  6
CONTINUOUS
 10
9.5860951184252041
 20
1.0504201680672269
 11
9.6477069204267458
 21
1.0504201680672269
  0
LINE
  8
0
 62
50
  6
CONTINUOUS
 10
13.130252100840336
 20
6.7226890756302522
 11
13.130252100840336
 21
3.7815126050420167
  0
LINE
  8
0
 62
50
  6
CONTINUOUS
 10
12.310382390222207
 20
1.0504201680672269
 11
12.402590969298995
 21
1.0504201680672269
  0
LINE
  8
0
 62
50
  6
CONTINUOUS
 10
9.6562325601129615
 20
1.0504201680672269
 11
9.7484411391895573
 21
1.0504201680672269
  0
LINE
  8
0
 62
50
  6
CONTINUOUS
 10
9.7570665982841707
 20
1.0504201680672269
 11
12.301756931127596
 21
1.0504201680672269
  0
LINE
  8
0
 62
50
  6
CONTINUOUS
 10
12.184873949579831
 20
6.7226890756302522
 11
13.130252100840336
 21
6.7226890756302522
  0
LINE
  8
0
 62
50
  6
CONTINUOUS
 10
12.184873949579831
 20
3.7815126050420167
 11
13.130252100840336
 21
3.7815126050420167
  0
LINE
  8
0
 62
50
  6
CONTINUOUS
 10
4.2016806722689077
 20
0
 11
4.2016806722689077
 21
0.52521008403361347
  0
LINE
  8
0
 62
50
  6
CONTINUOUS
 10
4.2016806722689077
 20
0.52521008403361347
 11
9.0336134453781511
 21
0.52521008403361347
  0
LINE
  8
0
 62
50
  6
CONTINUOUS
 10
9.0336134453781511
 20
0.52521008403361347
 11
13.025210084033613
 21
0.52521008403361347
  0
LINE
  8
0
 62
50
  6
CONTINUOUS
 10
13.025210084033613
 20
0.52521008403361347
 11
17.857142857142858
 21
0.52521008403361347
  0
LINE
  8
0
 62
50
  6
CONTINUOUS
 10
17.857142857142858
 20
0.52521008403361347
 11
17.857142857142858
 21
0
  0
LINE
  8
0
 62
50
  6
CONTINUOUS
 10
4.8081410390646875
 20
0
 11
4.8081410390646875
 21
0.52521008403361347
  0
LINE
  8
0
 62
50
  6
CONTINUOUS
 10
17.250682490347078
 20
0.52521008403361347
 11
17.250682490347078
 21
0
  0
LINE
  8
0
 62
50
  6
CONTINUOUS
 10
4.2016806722689077
 20
0
 11
17.857142857142858
 21
0
  0
LINE
  8
0
 62
5
  6
CONTINUOUS
 10
12.500000000000025
 20
3.8865546218487395
 11
12.500000000000025
 21
6.6176470588235299
  0
LINE
  8
0
 62
5
  6
DASHDOT
 10
10.399159663865499
 20
5.2521008403361824
 11
14.180672268907562
 21
5.2521008403361824
  0
INSERT
  8
249
 62
5
  6
DASHDOT
  2
TELL_7
 10
13.130252100840336
 20
5.2521008403361344
 41
1.0
 42
1.0
 50
0.0
  0
LINE
  8
0
 62
5
  6
DASHDOT
 10
6.6176470588235299
 20
-0.31512605042016806
 11
6.6176470588235299
 21
0.84033613445378152
  0
LINE
  8
0
 62
5
  6
DASHDOT
 10
15.441176470588236
 20
-0.31512605042016806
 11
15.441176470588236
 21
0.84033613445378152
  0
INSERT
  8
249
 62
5
  6
DASHDOT
  2
TELL_8
 10
11.029411764705882
 20
5.2521008403361344
 41
1.0
 42
1.0
 50
0.0
  0
ENDBLK
  0
ENDSEC
  0
SECTION
  2
ENTITIES
  0
INSERT
  8
249
 62
50
  6
CONTINUOUS
  2
TELL_1
 10
-3.1512605042016806
 20
0
 41
1.0
 42
1.0
 50
0.0
  0
INSERT
  8
0
 62
5
  6
DASHDOT
  2
TELL_4
 10
-3.1512605042016806
 20
-11.029411764705882
 41
1.0
 42
1.0
 50
0.0
  0
INSERT
  8
0
 62
50
  6
CONTINUOUS
  2
3_50_CM
 10
11.029411764705882
 20
0
 41
1.0
 42
1.0
 50
0.0
  0
ENDSEC
  0
EOF
