  0
SECTION
  2
HEADER
  9
$ACADVER
  1
AC1009
  9
$EXTMIN
 10
-2.6178010471204782
 20
-17.801047120418847
  9
$EXTMAX
 10
20.287958115183187
 20
7.1989528795811522
  9
$TEXTSTYLE
  7
STANDARD
  9
$DIMLFAC
 40
1
  9
$REGENMODE
 70
1
  9
$DRAGMODE
 70
2
  9
$DIMASO
 70
1
  9
$LTSCALE
 40
1.0000000000
  0
ENDSEC
  0
SECTION
  2
TABLES
  0
TABLE
  2
LTYPE
 70
2
  0
LTYPE
  2
CONTINUOUS
 70
64
  3
CONTINUOUS
 72
65
 73
0
 40
0.0000000000
  0
LTYPE
  2
DASHDOT
 70
64
  3
DASHDOT
 72
65
 73
4
 40
1.0000000000
 49
0.5000000000
 49
-0.2500000000
 49
0.0000000000
 49
-0.2500000000
  0
ENDTAB
  0
TABLE
  2
LAYER
 70
2
  0
LAYER
  2
0
 70
0
 62
2
  6
CONTINUOUS
  0
LAYER
  2
249
 70
0
 62
2
  6
CONTINUOUS
  0
ENDTAB
  0
TABLE
  2
STYLE
 70
0
  0
STYLE
  2
Standard
 70
0
 40
0
 41
1
 50
0
 71
0
 42
2.5
  3
txt
  4

  0
ENDTAB
  0
ENDSEC
  0
SECTION
  2
BLOCKS
  0
BLOCK
  8
0
 62
140
  6
CONTINUOUS
  2
TELL_2
 70
0
 10
-2.9760952283145557e-014
 20
0.81806282722513091
  0
LINE
  8
0
 62
50
  6
CONTINUOUS
 10
-1.6361256544503213
 20
0.98167539267015702
 11
-1.6257086775231286
 21
0.98167539267015702
  0
LINE
  8
0
 62
50
  6
CONTINUOUS
 10
-1.6257086763472437
 20
0.98167539267015702
 11
-1.6246397503451322
 21
0.98024704934821105
  0
LINE
  8
0
 62
50
  6
CONTINUOUS
 10
-1.6246397503451322
 20
0.98024704777695182
 11
-1.6183510223340662
 21
0.98167539267015702
  0
LINE
  8
0
 62
50
  6
CONTINUOUS
 10
-1.6183510223340662
 20
0.98167539267015702
 11
-1.5964225390839828
 21
0.98167539267015702
  0
LINE
  8
0
 62
50
  6
CONTINUOUS
 10
-1.5964225354082373
 20
0.98167539267015702
 11
-1.5907579892223587
 21
0.97996120262689546
  0
LINE
  8
0
 62
50
  6
CONTINUOUS
 10
-1.5907579892223587
 20
0.97996120286242361
 11
-1.5834513589769448
 21
0.98167539267015702
  0
LINE
  8
0
 62
50
  6
CONTINUOUS
 10
-1.5834513527386029
 20
0.98167539267015702
 11
-1.5452899465759242
 21
0.98167539267015702
  0
LINE
  8
0
 62
50
  6
CONTINUOUS
 10
-1.5452899336017858
 20
0.98167539267015702
 11
-1.536179344062631
 21
0.98081856446398996
  0
LINE
  8
0
 62
50
  6
CONTINUOUS
 10
-1.536179344062631
 20
0.98081856462270511
 11
-1.532703561260937
 21
0.98167539267015702
  0
LINE
  8
0
 62
50
  6
CONTINUOUS
 10
-1.5327035552803547
 20
0.98167539267015702
 11
-1.4671164047167704
 21
0.98167539267015702
  0
LINE
  8
0
 62
50
  6
CONTINUOUS
 10
-1.4671163998732946
 20
0.98167539267015702
 11
-1.4636406160348183
 21
0.9808185644508951
  0
LINE
  8
0
 62
50
  6
CONTINUOUS
 10
-1.4636406160348183
 20
0.9808185645257439
 11
-1.4491411969642647
 21
0.98167539267015702
  0
LINE
  8
0
 62
50
  6
CONTINUOUS
 10
-1.4491411751942769
 20
0.98167539267015702
 11
-1.3884076453742049
 21
0.98167539267015702
  0
LINE
  8
0
 62
50
  6
CONTINUOUS
 10
-1.3884076369307548
 20
0.98167539267015702
 11
-1.3767791998575627
 21
0.97996120269305398
  0
LINE
  8
0
 62
50
  6
CONTINUOUS
 10
-1.3767791998575627
 20
0.97996120274278453
 11
-1.3605908581559445
 21
0.98167539267015702
  0
LINE
  8
0
 62
50
  6
CONTINUOUS
 10
-1.3605908456932778
 20
0.98167539267015702
 11
-1.2979228406264189
 21
0.98167539267015702
  0
LINE
  8
0
 62
50
  6
CONTINUOUS
 10
-1.2979228244930066
 20
0.98167539267015702
 11
-1.2799506896397144
 21
0.98024704920369188
  0
LINE
  8
0
 62
50
  6
CONTINUOUS
 10
-1.2799506896397144
 20
0.98024704921910799
 11
-1.2704637083140109
 21
0.98167539267015702
  0
LINE
  8
0
 62
50
  6
CONTINUOUS
 10
-1.2704636994723297
 20
0.98167539267015702
 11
1.2704636994723
 21
0.98167539267015702
  0
LINE
  8
0
 62
50
  6
CONTINUOUS
 10
1.2704637083138621
 20
0.98167539267015702
 11
1.2799506896396251
 21
0.98024704921907824
  0
LINE
  8
0
 62
50
  6
CONTINUOUS
 10
1.2799506896396251
 20
0.98024704920372163
 11
1.2979228244926198
 21
0.98167539267015702
  0
LINE
  8
0
 62
50
  6
CONTINUOUS
 10
1.2979228406261509
 20
0.98167539267015702
 11
1.3605908456933968
 21
0.98167539267015702
  0
LINE
  8
0
 62
50
  6
CONTINUOUS
 10
1.3605908581560338
 20
0.98167539267015702
 11
1.3767791998574732
 21
0.97996120274281429
  0
LINE
  8
0
 62
50
  6
CONTINUOUS
 10
1.3767791998574732
 20
0.97996120269305398
 11
1.3884076369306655
 21
0.98167539267015702
  0
LINE
  8
0
 62
50
  6
CONTINUOUS
 10
1.3884076453739964
 20
0.98167539267015702
 11
1.4491411751945151
 21
0.98167539267015702
  0
LINE
  8
0
 62
50
  6
CONTINUOUS
 10
1.449141196964354
 20
0.98167539267015702
 11
1.4636406160346993
 21
0.9808185645257439
  0
LINE
  8
0
 62
50
  6
CONTINUOUS
 10
1.4636406160346993
 20
0.98081856445092486
 11
1.4671163998731458
 21
0.98167539267015702
  0
LINE
  8
0
 62
50
  6
CONTINUOUS
 10
1.4671164047165919
 20
0.98167539267015702
 11
1.532703555280325
 21
0.98167539267015702
  0
LINE
  8
0
 62
50
  6
CONTINUOUS
 10
1.5327035612607882
 20
0.98167539267015702
 11
1.5361793440625418
 21
0.98081856462267536
  0
LINE
  8
0
 62
50
  6
CONTINUOUS
 10
1.5361793440625418
 20
0.98081856446398996
 11
1.5452899336017263
 21
0.98167539267015702
  0
LINE
  8
0
 62
50
  6
CONTINUOUS
 10
1.545289946575686
 20
0.98167539267015702
 11
1.5834513527386624
 21
0.98167539267015702
  0
LINE
  8
0
 62
50
  6
CONTINUOUS
 10
1.583451358976796
 20
0.98167539267015702
 11
1.5907579892222694
 21
0.97996120286242361
  0
LINE
  8
0
 62
50
  6
CONTINUOUS
 10
1.5907579892222694
 20
0.97996120262689546
 11
1.5964225354080885
 21
0.98167539267015702
  0
LINE
  8
0
 62
50
  6
CONTINUOUS
 10
1.5964225390837745
 20
0.98167539267015702
 11
1.618351022333977
 21
0.98167539267015702
  0
LINE
  8
0
 62
50
  6
CONTINUOUS
 10
1.618351022333977
 20
0.98167539267015702
 11
1.6246397503450132
 21
0.98024704777695182
  0
LINE
  8
0
 62
50
  6
CONTINUOUS
 10
1.6246397503450132
 20
0.98024704934824081
 11
1.6257086763471247
 21
0.98167539267015702
  0
LINE
  8
0
 62
50
  6
CONTINUOUS
 10
1.6257086775230096
 20
0.98167539267015702
 11
1.6361256544502023
 21
0.98167539267015702
  0
LINE
  8
0
 62
50
  6
CONTINUOUS
 10
1.6361256544502023
 20
0.98167539267015702
 11
1.9633507853402545
 21
0.65445026178010468
  0
LINE
  8
0
 62
50
  6
CONTINUOUS
 10
1.9633507853402843
 20
0.65445026178010468
 11
-1.9633507853403735
 21
0.65445026178010468
  0
LINE
  8
0
 62
50
  6
CONTINUOUS
 10
-1.9633507853403735
 20
0.65445026178010468
 11
-1.6361256544503213
 21
0.98167539267015702
  0
ENDBLK
  0
BLOCK
  8
0
 62
5
  6
DASHDOT
  2
TELL_3
 70
0
 10
-2.9760952283145557e-014
 20
5.7591623036649215
  0
LINE
  8
0
 62
50
  6
CONTINUOUS
 10
-2.9760952283145557e-014
 20
6.4770716698038635
 11
-0.62172774869112923
 21
6.1181169867343774
  0
LINE
  8
0
 62
50
  6
CONTINUOUS
 10
-0.62172774869112923
 20
6.1181169867343774
 11
-0.62172774869112923
 21
5.4002076205954657
  0
LINE
  8
0
 62
50
  6
CONTINUOUS
 10
-0.62172774869112923
 20
5.4002076205954657
 11
-2.9760952283145557e-014
 21
5.0412529375259796
  0
LINE
  8
0
 62
50
  6
CONTINUOUS
 10
-2.9760952283145557e-014
 20
5.0412529375259796
 11
0.62172774869106973
 21
5.4002076205954657
  0
LINE
  8
0
 62
50
  6
CONTINUOUS
 10
0.62172774869106973
 20
5.4002076205954657
 11
0.62172774869106973
 21
6.1181169867343774
  0
LINE
  8
0
 62
50
  6
CONTINUOUS
 10
0.62172774869106973
 20
6.1181169867343774
 11
-2.9760952283145557e-014
 21
6.4770716698038635
  0
CIRCLE
  8
0
 62
50
  6
CONTINUOUS
 10
-2.9760952283145557e-014
 20
5.7591623036649215
 40
0.62172774869109948
  0
LINE
  8
0
 62
5
  6
DASHDOT
 10
-2.9760952283145557e-014
 20
4.9103628851699588
 11
-2.9760952283145557e-014
 21
6.6079617221598843
  0
LINE
  8
0
 62
5
  6
DASHDOT
 10
-0.84879941849499241
 20
5.7591623036649215
 11
0.8487994184949329
 21
5.7591623036649215
  0
ENDBLK
  0
BLOCK
  8
249
 62
5
  6
DASHDOT
  2
TELL_4
 70
0
 10
5.4280560579805599e-091
 20
2.159685863874286
  0
CIRCLE
  8
249
 62
50
  6
CONTINUOUS
 10
5.4280560579805599e-091
 20
2.159685863874286
 40
0.32241492146596856
  0
ARC
  8
249
 62
5
  6
CONTINUOUS
 10
5.4280560579805599e-091
 20
2.159685863874286
 40
0.39267015706806285
 50
175.00000000000003
 51
90
  0
LINE
  8
249
 62
5
  6
DASHDOT
 10
3.2058811201240103e-017
 20
2.6832460732983696
 11
-3.2058811201240103e-017
 21
1.6361256544502023
  0
LINE
  8
249
 62
5
  6
DASHDOT
 10
-0.52356020942408377
 20
2.159685863874286
 11
0.52356020942408377
 21
2.159685863874286
  0
ENDBLK
  0
BLOCK
  8
0
 62
5
  6
DASHDOT
  2
TELL_1
 70
0
 10
-5.691186905104712e-010
 20
-2.2737367544306282e-010
  0
INSERT
  8
0
 62
140
  6
CONTINUOUS
  2
TELL_2
 10
-2.9760952283145557e-014
 20
0.81806282722513091
 41
1.0
 42
1.0
 50
0.0
  0
LINE
  8
0
 62
50
  6
CONTINUOUS
 10
-1.6361256544503213
 20
0.98167539267015702
 11
-1.6257086775231286
 21
0.98167539267015702
  0
LINE
  8
0
 62
50
  6
CONTINUOUS
 10
-1.9633507853403735
 20
0.65445026178010468
 11
-1.6361256544503213
 21
0.98167539267015702
  0
LINE
  8
0
 62
50
  6
CONTINUOUS
 10
1.6361256544502023
 20
0.98167539267015702
 11
1.9633507853402545
 21
0.65445026178010468
  0
LINE
  8
0
 62
50
  6
CONTINUOUS
 10
1.6361256544502023
 20
7.1989528795811522
 11
1.6361256544502023
 21
7.0680628272251305
  0
LINE
  8
0
 62
50
  6
CONTINUOUS
 10
1.6257086763471247
 20
0.98167539267015702
 11
1.6246397503450132
 21
0.98024704934824081
  0
LINE
  8
0
 62
50
  6
CONTINUOUS
 10
1.6361256544502023
 20
4.4502617801047117
 11
1.6361256544502023
 21
0.98167539267015702
  0
LINE
  8
0
 62
50
  6
CONTINUOUS
 10
-1.6361256544503213
 20
7.1989528795811522
 11
1.6361256544502023
 21
7.1989528795811522
  0
LINE
  8
0
 62
50
  6
CONTINUOUS
 10
-1.6361256544503213
 20
0.98167539267015702
 11
-1.6361256544503213
 21
4.4502617801047117
  0
LINE
  8
0
 62
50
  6
CONTINUOUS
 10
-1.6246397503451322
 20
0.98024704934821105
 11
-1.6257086763472437
 21
0.98167539267015702
  0
LINE
  8
0
 62
50
  6
CONTINUOUS
 10
-1.6361256544503213
 20
7.0680628272251305
 11
-1.6361256544503213
 21
7.1989528795811522
  0
LINE
  8
0
 62
50
  6
CONTINUOUS
 10
1.5964225390837745
 20
0.98167539267015702
 11
1.618351022333977
 21
0.98167539267015702
  0
LINE
  8
0
 62
50
  6
CONTINUOUS
 10
1.6257086775230096
 20
0.98167539267015702
 11
1.6361256544502023
 21
0.98167539267015702
  0
LINE
  8
0
 62
50
  6
CONTINUOUS
 10
1.618351022333977
 20
0.98167539267015702
 11
1.6246397503450132
 21
0.98024704777695182
  0
LINE
  8
0
 62
50
  6
CONTINUOUS
 10
-1.6183510223340662
 20
0.98167539267015702
 11
-1.5964225390839828
 21
0.98167539267015702
  0
LINE
  8
0
 62
50
  6
CONTINUOUS
 10
-1.6246397503451322
 20
0.98024704777695182
 11
-1.6183510223340662
 21
0.98167539267015702
  0
LINE
  8
0
 62
50
  6
CONTINUOUS
 10
-1.5907579892223587
 20
0.97996120262689546
 11
-1.5964225354082373
 21
0.98167539267015702
  0
LINE
  8
0
 62
50
  6
CONTINUOUS
 10
1.5964225354080885
 20
0.98167539267015702
 11
1.5907579892222694
 21
0.97996120262689546
  0
LINE
  8
0
 62
50
  6
CONTINUOUS
 10
-1.536179344062631
 20
0.98081856446398996
 11
-1.5452899336017858
 21
0.98167539267015702
  0
LINE
  8
0
 62
50
  6
CONTINUOUS
 10
-1.5834513589769448
 20
0.98167539267015702
 11
-1.5907579892223587
 21
0.97996120286242361
  0
LINE
  8
0
 62
50
  6
CONTINUOUS
 10
1.5452899336017263
 20
0.98167539267015702
 11
1.5361793440625418
 21
0.98081856446398996
  0
LINE
  8
0
 62
50
  6
CONTINUOUS
 10
1.5907579892222694
 20
0.97996120286242361
 11
1.583451358976796
 21
0.98167539267015702
  0
LINE
  8
0
 62
50
  6
CONTINUOUS
 10
-1.4636406160348183
 20
0.9808185644508951
 11
-1.4671163998732946
 21
0.98167539267015702
  0
LINE
  8
0
 62
50
  6
CONTINUOUS
 10
-1.532703561260937
 20
0.98167539267015702
 11
-1.536179344062631
 21
0.98081856462270511
  0
LINE
  8
0
 62
50
  6
CONTINUOUS
 10
1.4671163998731458
 20
0.98167539267015702
 11
1.4636406160346993
 21
0.98081856445092486
  0
LINE
  8
0
 62
50
  6
CONTINUOUS
 10
1.5361793440625418
 20
0.98081856462267536
 11
1.5327035612607882
 21
0.98167539267015702
  0
LINE
  8
0
 62
50
  6
CONTINUOUS
 10
-1.5834513527386029
 20
0.98167539267015702
 11
-1.5452899465759242
 21
0.98167539267015702
  0
LINE
  8
0
 62
50
  6
CONTINUOUS
 10
1.4671164047165919
 20
0.98167539267015702
 11
1.532703555280325
 21
0.98167539267015702
  0
LINE
  8
0
 62
50
  6
CONTINUOUS
 10
1.545289946575686
 20
0.98167539267015702
 11
1.5834513527386624
 21
0.98167539267015702
  0
LINE
  8
0
 62
50
  6
CONTINUOUS
 10
-1.3767791998575627
 20
0.97996120269305398
 11
-1.3884076369307548
 21
0.98167539267015702
  0
LINE
  8
0
 62
50
  6
CONTINUOUS
 10
-1.4491411969642647
 20
0.98167539267015702
 11
-1.4636406160348183
 21
0.9808185645257439
  0
LINE
  8
0
 62
50
  6
CONTINUOUS
 10
1.3884076369306655
 20
0.98167539267015702
 11
1.3767791998574732
 21
0.97996120269305398
  0
LINE
  8
0
 62
50
  6
CONTINUOUS
 10
1.4636406160346993
 20
0.9808185645257439
 11
1.449141196964354
 21
0.98167539267015702
  0
LINE
  8
0
 62
50
  6
CONTINUOUS
 10
1.2979228244926198
 20
0.98167539267015702
 11
1.2799506896396251
 21
0.98024704920372163
  0
LINE
  8
0
 62
50
  6
CONTINUOUS
 10
1.3767791998574732
 20
0.97996120274281429
 11
1.3605908581560338
 21
0.98167539267015702
  0
LINE
  8
0
 62
50
  6
CONTINUOUS
 10
-1.2799506896397144
 20
0.98024704920369188
 11
-1.2979228244930066
 21
0.98167539267015702
  0
LINE
  8
0
 62
50
  6
CONTINUOUS
 10
-1.3605908581559445
 20
0.98167539267015702
 11
-1.3767791998575627
 21
0.97996120274278453
  0
LINE
  8
0
 62
50
  6
CONTINUOUS
 10
-1.2704637083140109
 20
0.98167539267015702
 11
-1.2799506896397144
 21
0.98024704921910799
  0
LINE
  8
0
 62
50
  6
CONTINUOUS
 10
1.2799506896396251
 20
0.98024704921907824
 11
1.2704637083138621
 21
0.98167539267015702
  0
LINE
  8
0
 62
5
  6
CONTINUOUS
 10
-1.1780104714887627
 20
0.98167539255647018
 11
-1.1780104714887627
 21
4.4502617799910249
  0
LINE
  8
0
 62
5
  6
CONTINUOUS
 10
1.1780104709196142
 20
4.4502617799910249
 11
1.1780104709196142
 21
0.98167539255647018
  0
LINE
  8
0
 62
50
  6
CONTINUOUS
 10
-1.5327035552803547
 20
0.98167539267015702
 11
-1.4671164047167704
 21
0.98167539267015702
  0
LINE
  8
0
 62
50
  6
CONTINUOUS
 10
-1.4491411751942769
 20
0.98167539267015702
 11
-1.3884076453742049
 21
0.98167539267015702
  0
LINE
  8
0
 62
50
  6
CONTINUOUS
 10
1.2979228406261509
 20
0.98167539267015702
 11
1.3605908456933968
 21
0.98167539267015702
  0
LINE
  8
0
 62
50
  6
CONTINUOUS
 10
1.3884076453739964
 20
0.98167539267015702
 11
1.4491411751945151
 21
0.98167539267015702
  0
LINE
  8
0
 62
50
  6
CONTINUOUS
 10
-1.3605908456932778
 20
0.98167539267015702
 11
-1.2979228406264189
 21
0.98167539267015702
  0
LINE
  8
0
 62
50
  6
CONTINUOUS
 10
-1.2704636994723297
 20
0.98167539267015702
 11
1.2704636994723
 21
0.98167539267015702
  0
LINE
  8
0
 62
50
  6
CONTINUOUS
 10
-2.1269633507853998
 20
4.4502617801047117
 11
-2.1269633507853998
 21
7.0680628272251305
  0
LINE
  8
0
 62
50
  6
CONTINUOUS
 10
2.1269633507853105
 20
7.0680628272251305
 11
2.1269633507853105
 21
4.4502617801047117
  0
LINE
  8
0
 62
50
  6
CONTINUOUS
 10
-2.1269633507853998
 20
4.4502617801047117
 11
2.1269633507853105
 21
4.4502617801047117
  0
LINE
  8
0
 62
50
  6
CONTINUOUS
 10
-2.1269633507853998
 20
7.0680628272251305
 11
2.1269633507853105
 21
7.0680628272251305
  0
LINE
  8
0
 62
5
  6
CONTINUOUS
 10
-1.6034031416458308
 20
4.5484293192580409
 11
-1.6034031416458308
 21
6.9698952878444285
  0
LINE
  8
0
 62
5
  6
CONTINUOUS
 10
1.6034031410766822
 20
6.9698952878444285
 11
1.6034031410766822
 21
4.5484293192580409
  0
LINE
  8
0
 62
50
  6
CONTINUOUS
 10
-2.6178010471204782
 20
0
 11
-2.6178010471204782
 21
0.65445026178010468
  0
LINE
  8
0
 62
50
  6
CONTINUOUS
 10
-2.6178010471204782
 20
0.65445026178010468
 11
-1.9633507853403735
 21
0.65445026178010468
  0
LINE
  8
0
 62
50
  6
CONTINUOUS
 10
-1.9633507853403735
 20
0.65445026178010468
 11
1.9633507853402843
 21
0.65445026178010468
  0
LINE
  8
0
 62
50
  6
CONTINUOUS
 10
1.9633507853402843
 20
0.65445026178010468
 11
2.6178010471203592
 21
0.65445026178010468
  0
LINE
  8
0
 62
50
  6
CONTINUOUS
 10
2.6178010471203592
 20
0.65445026178010468
 11
2.6178010471203592
 21
0
  0
LINE
  8
0
 62
50
  6
CONTINUOUS
 10
2.6178010471203592
 20
0
 11
-2.6178010471204782
 21
0
  0
INSERT
  8
0
 62
5
  6
DASHDOT
  2
TELL_3
 10
-2.9760952283145557e-014
 20
5.7591623036649215
 41
1.0
 42
1.0
 50
0.0
  0
INSERT
  8
249
 62
5
  6
DASHDOT
  2
TELL_4
 10
5.4280560579805599e-091
 20
2.159685863874286
 41
1.0
 42
1.0
 50
0.0
  0
LINE
  8
0
 62
5
  6
DASHDOT
 10
-3.2058811201240103e-017
 20
1.6361256544502023
 11
-3.2058811201240103e-017
 21
-0.31476450353011531
  0
ENDBLK
  0
BLOCK
  8
0
 62
5
  6
DASHDOT
  2
TELL_6
 70
0
 10
-2.8460398668372096e-010
 20
-14.39790575927355
  0
LINE
  8
0
 62
50
  6
CONTINUOUS
 10
0.71662303664920279
 20
-14.430628272251308
 11
0.71662303664920346
 21
-14.873461327599474
  0
ARC
  8
0
 62
50
  6
CONTINUOUS
 10
0.53746727748688738
 20
-14.563154450261786
 40
0.35831151832460728
 50
227.88538956950413
 51
300
  0
ARC
  8
0
 62
50
  6
CONTINUOUS
 10
-2.1653942736990253e-025
 20
-14.397905759162304
 40
0.52356020942408377
 50
235.41628176499029
 51
304.58371823500971
  0
ARC
  8
0
 62
50
  6
CONTINUOUS
 10
-0.53746727748694645
 20
-14.563154450261786
 40
0.35831151832460728
 50
240
 51
312.11461043049587
  0
LINE
  8
0
 62
50
  6
CONTINUOUS
 10
-0.71662303664923177
 20
-14.873461327599474
 11
-0.71662303664923255
 21
-14.430628272251308
  0
LINE
  8
0
 62
50
  6
CONTINUOUS
 10
0.29717791159029316
 20
-14.828951675225778
 11
0.29717791158755441
 21
-14.430628272251308
  0
LINE
  8
0
 62
50
  6
CONTINUOUS
 10
-0.29717791159032153
 20
-14.828951675225778
 11
-0.29717791158755441
 21
-14.430628272251308
  0
LINE
  8
0
 62
50
  6
CONTINUOUS
 10
0.53746727748688783
 20
-14.921465968586388
 11
-0.537467277486946
 21
-14.921465968586388
  0
LINE
  8
0
 62
5
  6
CONTINUOUS
 10
0.39267015706806285
 20
-14.397905759162304
 11
0.39267015706806041
 21
-12.832035340314134
  0
LINE
  8
0
 62
5
  6
CONTINUOUS
 10
0.39267015706806041
 20
-12.832035340314134
 11
0.32241492146593842
 21
-12.761780104712042
  0
LINE
  8
0
 62
5
  6
CONTINUOUS
 10
0.32241492146593842
 20
-12.761780104712042
 11
-0.32241492146600303
 21
-12.761780104712042
  0
LINE
  8
0
 62
5
  6
CONTINUOUS
 10
-0.32241492146600303
 20
-12.761780104712042
 11
-0.39267015706806524
 21
-12.832035340314134
  0
LINE
  8
0
 62
5
  6
CONTINUOUS
 10
-0.39267015706806524
 20
-12.832035340314134
 11
-0.39267015706806285
 21
-14.397905759162304
  0
LINE
  8
0
 62
5
  6
CONTINUOUS
 10
0.39267015706806041
 20
-12.832035340314134
 11
-0.39267015706806524
 21
-12.832035340314134
  0
LINE
  8
0
 62
50
  6
CONTINUOUS
 10
-0.71662303664923255
 20
-14.430628272251308
 11
0.71662303664920279
 21
-14.430628272251308
  0
LINE
  8
0
 62
50
  6
CONTINUOUS
 10
0.62172774869109948
 20
-14.430628272251308
 11
0.62172774869109948
 21
-14.397905759162304
  0
LINE
  8
0
 62
50
  6
CONTINUOUS
 10
-0.62172774869109948
 20
-14.397905759162304
 11
-0.62172774869109948
 21
-14.430628272251308
  0
LINE
  8
0
 62
5
  6
CONTINUOUS
 10
0.32241492146593842
 20
-12.761780104712042
 11
0.32241492146594097
 21
-14.397905759162304
  0
LINE
  8
0
 62
5
  6
CONTINUOUS
 10
-0.32241492146600303
 20
-12.761780104712042
 11
-0.32241492146600048
 21
-14.397905759162304
  0
ENDBLK
  0
BLOCK
  8
0
 62
5
  6
DASHDOT
  2
TELL_7
 70
0
 10
-2.8460398668372096e-010
 20
-5.8900523559096962
  0
LINE
  8
0
 62
50
  6
CONTINUOUS
 10
0.71662303664920279
 20
-5.8573298429319349
 11
0.71662303664920202
 21
-5.4144967875837695
  0
ARC
  8
0
 62
50
  6
CONTINUOUS
 10
0.53746727748688694
 20
-5.7248036649214598
 40
0.35831151832460728
 50
60
 51
132.11461043049587
  0
ARC
  8
0
 62
50
  6
CONTINUOUS
 10
2.1653942736990253e-025
 20
-5.8900523560209423
 40
0.52356020942408377
 50
55.416281764990288
 51
124.58371823500971
  0
ARC
  8
0
 62
50
  6
CONTINUOUS
 10
-0.53746727748694689
 20
-5.7248036649214598
 40
0.35831151832460728
 50
47.885389569504127
 51
120
  0
LINE
  8
0
 62
50
  6
CONTINUOUS
 10
-0.71662303664923321
 20
-5.414496787583774
 11
-0.71662303664923255
 21
-5.8573298429319394
  0
LINE
  8
0
 62
50
  6
CONTINUOUS
 10
0.29717791159029172
 20
-5.4590064399574691
 11
0.29717791158755441
 21
-5.8573298429319367
  0
LINE
  8
0
 62
50
  6
CONTINUOUS
 10
-0.29717791159032292
 20
-5.4590064399574691
 11
-0.29717791158755441
 21
-5.8573298429319367
  0
LINE
  8
0
 62
50
  6
CONTINUOUS
 10
0.5374672774868865
 20
-5.3664921465968582
 11
-0.53746727748694745
 21
-5.3664921465968582
  0
LINE
  8
0
 62
5
  6
CONTINUOUS
 10
0.39267015706806285
 20
-5.8900523560209423
 11
0.39267015706806524
 21
-7.4559227748691121
  0
LINE
  8
0
 62
5
  6
CONTINUOUS
 10
0.39267015706806524
 20
-7.4559227748691121
 11
0.32241492146594353
 21
-7.5261780104712042
  0
LINE
  8
0
 62
5
  6
CONTINUOUS
 10
0.32241492146594353
 20
-7.5261780104712042
 11
-0.32241492146599793
 21
-7.5261780104712042
  0
LINE
  8
0
 62
5
  6
CONTINUOUS
 10
-0.32241492146599793
 20
-7.5261780104712042
 11
-0.39267015706806041
 21
-7.4559227748691121
  0
LINE
  8
0
 62
5
  6
CONTINUOUS
 10
-0.39267015706806041
 20
-7.4559227748691121
 11
-0.39267015706806285
 21
-5.8900523560209423
  0
LINE
  8
0
 62
5
  6
CONTINUOUS
 10
0.39267015706806524
 20
-7.4559227748691121
 11
-0.39267015706806041
 21
-7.4559227748691121
  0
LINE
  8
0
 62
50
  6
CONTINUOUS
 10
-0.71662303664923255
 20
-5.8573298429319394
 11
0.71662303664920279
 21
-5.8573298429319349
  0
LINE
  8
0
 62
50
  6
CONTINUOUS
 10
0.62172774869109948
 20
-5.8573298429319349
 11
0.62172774869109948
 21
-5.8900523560209406
  0
LINE
  8
0
 62
50
  6
CONTINUOUS
 10
-0.62172774869109948
 20
-5.8900523560209441
 11
-0.62172774869109948
 21
-5.8573298429319394
  0
LINE
  8
0
 62
5
  6
CONTINUOUS
 10
0.32241492146594353
 20
-7.5261780104712042
 11
0.32241492146594097
 21
-5.8900523560209423
  0
LINE
  8
0
 62
5
  6
CONTINUOUS
 10
-0.32241492146599793
 20
-7.5261780104712042
 11
-0.32241492146600048
 21
-5.8900523560209423
  0
ENDBLK
  0
BLOCK
  8
0
 62
5
  6
DASHDOT
  2
TELL_5
 70
0
 10
8.535441114790575e-011
 20
-10.143979057787957
  0
LINE
  8
0
 62
50
  6
CONTINUOUS
 10
-2.6178010468359338
 20
-2.6178010471204187
 11
2.6178010474049036
 21
-2.6178010471204187
  0
LINE
  8
0
 62
50
  6
CONTINUOUS
 10
2.6178010474049036
 20
-2.6178010471204187
 11
2.6178010474049036
 21
-17.670157068062828
  0
LINE
  8
0
 62
50
  6
CONTINUOUS
 10
2.6178010474049036
 20
-17.670157068062828
 11
-2.6178010468359338
 21
-17.670157068062828
  0
LINE
  8
0
 62
50
  6
CONTINUOUS
 10
-2.6178010468359338
 20
-17.670157068062828
 11
-2.6178010468359338
 21
-2.6178010471204187
  0
LINE
  8
0
 62
50
  6
CONTINUOUS
 10
0.45811518324913869
 20
-4.6138743455497382
 11
0.45811518324913869
 21
-3.5667539267015709
  0
LINE
  8
0
 62
50
  6
CONTINUOUS
 10
-0.45811518324300793
 20
-3.5667539267015709
 11
-0.45811518324300793
 21
-4.6138743455497382
  0
LINE
  8
0
 62
50
  6
CONTINUOUS
 10
1.603403141358072
 20
-14.397905759162304
 11
-1.603403141364441
 21
-14.397905759159864
  0
LINE
  8
0
 62
50
  6
CONTINUOUS
 10
-2.1269633507885248
 20
-13.874345549738219
 11
-2.1269633507853998
 21
-12.827225130887612
  0
LINE
  8
0
 62
50
  6
CONTINUOUS
 10
-2.1269633507853998
 20
-12.827225130887612
 11
-1.8651832460733579
 21
-12.827225130887612
  0
LINE
  8
0
 62
50
  6
CONTINUOUS
 10
-1.8651832460733579
 20
-12.827225130887612
 11
-1.8651832460764828
 21
-13.874345549738219
  0
LINE
  8
0
 62
50
  6
CONTINUOUS
 10
-1.603403141364441
 20
-14.136125654450261
 11
1.603403141358072
 21
-14.136125654450261
  0
LINE
  8
0
 62
50
  6
CONTINUOUS
 10
1.8651832460701141
 20
-13.874345549738219
 11
1.8651832460732389
 21
-12.827225130887612
  0
LINE
  8
0
 62
50
  6
CONTINUOUS
 10
1.8651832460732389
 20
-12.827225130887612
 11
2.1269633507852808
 21
-12.827225130887612
  0
LINE
  8
0
 62
50
  6
CONTINUOUS
 10
2.1269633507852808
 20
-12.827225130887612
 11
2.1269633507821557
 21
-13.874345549738219
  0
LINE
  8
0
 62
50
  6
CONTINUOUS
 10
1.6361256544470772
 20
-10.798429319371728
 11
1.6361256544502023
 21
-13.154450261780104
  0
LINE
  8
0
 62
50
  6
CONTINUOUS
 10
1.178010471201004
 20
-13.612565445026178
 11
-1.1780104712073729
 21
-13.612565445023737
  0
LINE
  8
0
 62
50
  6
CONTINUOUS
 10
-1.6361256544534462
 20
-13.154450261780104
 11
-1.6361256544534462
 21
-10.798429319371728
  0
LINE
  8
0
 62
50
  6
CONTINUOUS
 10
-1.1780104712073729
 20
-10.340314136125654
 11
1.178010471201004
 21
-10.340314136125654
  0
LINE
  8
0
 62
50
  6
CONTINUOUS
 10
-1.3743455497414043
 20
-10.798429319371728
 11
-1.3743455497414043
 21
-13.154450261780104
  0
LINE
  8
0
 62
50
  6
CONTINUOUS
 10
-1.1780104712073729
 20
-13.350785340314136
 11
1.178010471201004
 21
-13.350785340314136
  0
LINE
  8
0
 62
50
  6
CONTINUOUS
 10
1.3743455497350354
 20
-13.154450261780104
 11
1.3743455497381603
 21
-10.798429319371728
  0
LINE
  8
0
 62
50
  6
CONTINUOUS
 10
1.178010471201004
 20
-10.602094240837696
 11
-1.1780104712073729
 21
-10.602094240835257
  0
ARC
  8
0
 62
50
  6
CONTINUOUS
 10
-1.1780104712042481
 20
-10.798429319369287
 40
0.19633507853403143
 50
90
 51
180.00000000071216
  0
ARC
  8
0
 62
50
  6
CONTINUOUS
 10
1.1780104712041291
 20
-10.798429319369287
 40
0.19633507853403143
 50
359.99999999928781
 51
90
  0
ARC
  8
0
 62
50
  6
CONTINUOUS
 10
-1.1780104712073431
 20
-13.154450261777665
 40
0.19633507853403143
 50
180.00000000071216
 51
270
  0
ARC
  8
0
 62
50
  6
CONTINUOUS
 10
1.1780104712041291
 20
-13.154450261780104
 40
0.19633507853403143
 50
270
 51
0
  0
ARC
  8
0
 62
50
  6
CONTINUOUS
 10
-1.1780104712042481
 20
-13.154450261777665
 40
0.45811518324607331
 50
180.00000000030522
 51
270
  0
ARC
  8
0
 62
50
  6
CONTINUOUS
 10
1.1780104712041291
 20
-13.154450261777665
 40
0.45811518324607331
 50
270
 51
359.99999999969481
  0
ARC
  8
0
 62
50
  6
CONTINUOUS
 10
-1.1780104712073431
 20
-10.798429319369287
 40
0.45811518324607331
 50
90
 51
180.00000000030522
  0
ARC
  8
0
 62
50
  6
CONTINUOUS
 10
1.1780104712041291
 20
-10.798429319371728
 40
0.45811518324607331
 50
0
 51
90
  0
ARC
  8
0
 62
50
  6
CONTINUOUS
 10
3.0653780851639924e-012
 20
-4.6138743455497382
 40
0.45811518324607331
 50
180.00000000030522
 51
359.99999999969481
  0
ARC
  8
0
 62
50
  6
CONTINUOUS
 10
3.0653780851639924e-012
 20
-3.5667539267015709
 40
0.45811518324606487
 50
359.99999999969481
 51
180.00000000030522
  0
LINE
  8
0
 62
5
  6
DASHDOT
 10
2.8454446477915469e-010
 20
-17.801047120418847
 11
2.8454446477915469e-010
 21
-2.4869109947643979
  0
LINE
  8
0
 62
50
  6
CONTINUOUS
 10
0.4581151832463114
 20
-15.67408376963184
 11
0.4581151832463114
 21
-16.721204188480009
  0
LINE
  8
0
 62
50
  6
CONTINUOUS
 10
-0.45811518324583522
 20
-16.721204188480009
 11
-0.45811518324583522
 21
-15.67408376963184
  0
ARC
  8
0
 62
50
  6
CONTINUOUS
 10
2.3808761826516446e-013
 20
-15.67408376963184
 40
0.45811518324607331
 50
3.0519231586367823e-010
 51
179.99999999969478
  0
ARC
  8
0
 62
50
  6
CONTINUOUS
 10
2.3808761826516446e-013
 20
-16.721204188480009
 40
0.45811518324606487
 50
179.99999999969478
 51
3.0519231586367823e-010
  0
ARC
  8
0
 62
50
  6
CONTINUOUS
 10
-1.6034031413613161
 20
-13.874345549735779
 40
0.26178010471204188
 50
180.00000000053413
 51
270
  0
ARC
  8
0
 62
50
  6
CONTINUOUS
 10
1.6034031413611971
 20
-13.874345549738219
 40
0.26178010471204188
 50
270
 51
0
  0
ARC
  8
0
 62
50
  6
CONTINUOUS
 10
-1.6034031413613161
 20
-13.874345549735779
 40
0.52356020942408377
 50
180.00000000026708
 51
270
  0
ARC
  8
0
 62
50
  6
CONTINUOUS
 10
1.6034031413611971
 20
-13.874345549735779
 40
0.52356020942408377
 50
270
 51
359.99999999973295
  0
LINE
  8
0
 62
5
  6
DASHDOT
 10
-0.58900523560182638
 20
-16.197643979055925
 11
0.58900523560245133
 21
-16.197643979055925
  0
LINE
  8
0
 62
5
  6
DASHDOT
 10
-0.58900523559899909
 20
-4.0903141361256541
 11
0.58900523560524887
 21
-4.0903141361256541
  0
INSERT
  8
0
 62
5
  6
DASHDOT
  2
TELL_6
 10
-2.8460398668372096e-010
 20
-14.39790575927355
 41
1.0
 42
1.0
 50
0.0
  0
LINE
  8
0
 62
50
  6
CONTINUOUS
 10
1.603403141358072
 20
-5.8900523560209423
 11
-1.603403141364441
 21
-5.8900523560233831
  0
LINE
  8
0
 62
50
  6
CONTINUOUS
 10
-2.1269633507885248
 20
-6.4136125654450264
 11
-2.1269633507853998
 21
-7.4607329842956345
  0
LINE
  8
0
 62
50
  6
CONTINUOUS
 10
-2.1269633507853998
 20
-7.4607329842956345
 11
-1.8651832460733579
 21
-7.4607329842956345
  0
LINE
  8
0
 62
50
  6
CONTINUOUS
 10
-1.8651832460733579
 20
-7.4607329842956345
 11
-1.8651832460764828
 21
-6.4136125654450264
  0
LINE
  8
0
 62
50
  6
CONTINUOUS
 10
-1.603403141364441
 20
-6.151832460732984
 11
1.603403141358072
 21
-6.151832460732984
  0
LINE
  8
0
 62
50
  6
CONTINUOUS
 10
1.8651832460701141
 20
-6.4136125654450264
 11
1.8651832460732389
 21
-7.4607329842956345
  0
LINE
  8
0
 62
50
  6
CONTINUOUS
 10
1.8651832460732389
 20
-7.4607329842956345
 11
2.1269633507852808
 21
-7.4607329842956345
  0
LINE
  8
0
 62
50
  6
CONTINUOUS
 10
2.1269633507852808
 20
-7.4607329842956345
 11
2.1269633507821557
 21
-6.4136125654450264
  0
LINE
  8
0
 62
50
  6
CONTINUOUS
 10
1.6361256544470772
 20
-9.489528795811518
 11
1.6361256544502023
 21
-7.1335078534031418
  0
LINE
  8
0
 62
50
  6
CONTINUOUS
 10
1.178010471201004
 20
-6.6753926701570681
 11
-1.1780104712073729
 21
-6.6753926701595088
  0
LINE
  8
0
 62
50
  6
CONTINUOUS
 10
-1.6361256544534462
 20
-7.1335078534031418
 11
-1.6361256544534462
 21
-9.489528795811518
  0
LINE
  8
0
 62
50
  6
CONTINUOUS
 10
-1.1780104712073729
 20
-9.9476439790575917
 11
1.178010471201004
 21
-9.9476439790575917
  0
LINE
  8
0
 62
50
  6
CONTINUOUS
 10
-1.3743455497414043
 20
-9.489528795811518
 11
-1.3743455497414043
 21
-7.1335078534031418
  0
LINE
  8
0
 62
50
  6
CONTINUOUS
 10
-1.1780104712073729
 20
-6.9371727748691097
 11
1.178010471201004
 21
-6.9371727748691097
  0
LINE
  8
0
 62
50
  6
CONTINUOUS
 10
1.3743455497350354
 20
-7.1335078534031418
 11
1.3743455497381603
 21
-9.489528795811518
  0
LINE
  8
0
 62
50
  6
CONTINUOUS
 10
1.178010471201004
 20
-9.6858638743455501
 11
-1.1780104712073729
 21
-9.6858638743479908
  0
ARC
  8
0
 62
50
  6
CONTINUOUS
 10
-1.1780104712042481
 20
-9.4895287958139587
 40
0.19633507853403143
 50
179.99999999928784
 51
270
  0
ARC
  8
0
 62
50
  6
CONTINUOUS
 10
1.1780104712041291
 20
-9.4895287958139587
 40
0.19633507853403143
 50
270
 51
7.1219119490706362e-010
  0
ARC
  8
0
 62
50
  6
CONTINUOUS
 10
-1.1780104712073431
 20
-7.1335078534055816
 40
0.19633507853403143
 50
90
 51
179.99999999928784
  0
ARC
  8
0
 62
50
  6
CONTINUOUS
 10
1.1780104712041291
 20
-7.1335078534031418
 40
0.19633507853403143
 50
0
 51
90
  0
ARC
  8
0
 62
50
  6
CONTINUOUS
 10
-1.1780104712042481
 20
-7.1335078534055816
 40
0.45811518324607331
 50
90
 51
179.99999999969478
  0
ARC
  8
0
 62
50
  6
CONTINUOUS
 10
1.1780104712041291
 20
-7.1335078534055816
 40
0.45811518324607331
 50
3.0519231586367823e-010
 51
90
  0
ARC
  8
0
 62
50
  6
CONTINUOUS
 10
-1.1780104712073431
 20
-9.4895287958139587
 40
0.45811518324607331
 50
179.99999999969478
 51
270
  0
ARC
  8
0
 62
50
  6
CONTINUOUS
 10
1.1780104712041291
 20
-9.489528795811518
 40
0.45811518324607331
 50
270
 51
0
  0
ARC
  8
0
 62
50
  6
CONTINUOUS
 10
-1.6034031413613161
 20
-6.4136125654474663
 40
0.26178010471204188
 50
90
 51
179.99999999946587
  0
ARC
  8
0
 62
50
  6
CONTINUOUS
 10
1.6034031413611971
 20
-6.4136125654450264
 40
0.26178010471204188
 50
0
 51
90
  0
ARC
  8
0
 62
50
  6
CONTINUOUS
 10
-1.6034031413613161
 20
-6.4136125654474663
 40
0.52356020942408377
 50
90
 51
179.99999999973292
  0
ARC
  8
0
 62
50
  6
CONTINUOUS
 10
1.6034031413611971
 20
-6.4136125654474663
 40
0.52356020942408377
 50
2.6705038180807605e-010
 51
90
  0
INSERT
  8
0
 62
5
  6
DASHDOT
  2
TELL_7
 10
-2.8460398668372096e-010
 20
-5.8900523559096962
 41
1.0
 42
1.0
 50
0.0
  0
ENDBLK
  0
BLOCK
  8
0
 62
140
  6
CONTINUOUS
  2
TELL_8
 70
0
 10
14.757853403141301
 20
0.81806282711144407
  0
LINE
  8
0
 62
50
  6
CONTINUOUS
 10
16.230366492146537
 20
0.98167539255647018
 11
16.557591623036586
 21
0.65445026166641784
  0
LINE
  8
0
 62
50
  6
CONTINUOUS
 10
16.557591623036586
 20
0.65445026166641784
 11
12.958115183246012
 21
0.65445026166641784
  0
LINE
  8
0
 62
50
  6
CONTINUOUS
 10
12.958115183246012
 20
0.65445026166641784
 11
12.958115183246012
 21
0.98167539255647018
  0
LINE
  8
0
 62
50
  6
CONTINUOUS
 10
12.958115183246012
 20
0.98167539255647018
 11
16.230366492146537
 21
0.98167539255647018
  0
ENDBLK
  0
BLOCK
  8
0
 62
5
  6
DASHDOT
  2
TELL_9
 70
0
 10
17.015706806080377
 20
5.7591623034375479
  0
LINE
  8
0
 62
50
  6
CONTINUOUS
 10
17.048429319371667
 20
6.4757853402004377
 11
17.491262374719835
 21
6.4757853402004377
  0
ARC
  8
0
 62
50
  6
CONTINUOUS
 10
17.180955497382147
 20
6.2966295810381512
 40
0.35831151832460728
 50
317.88538956950413
 51
30
  0
ARC
  8
0
 62
50
  6
CONTINUOUS
 10
17.015706806282662
 20
5.7591623035512347
 40
0.52356020942408377
 50
325.41628176499029
 51
34.583718235009712
  0
ARC
  8
0
 62
50
  6
CONTINUOUS
 10
17.180955497382147
 20
5.2216950260643173
 40
0.35831151832460728
 50
330
 51
42.114610430495873
  0
LINE
  8
0
 62
50
  6
CONTINUOUS
 10
17.491262374719835
 20
5.0425392669020317
 11
17.048429319371667
 21
5.0425392669020317
  0
LINE
  8
0
 62
50
  6
CONTINUOUS
 10
17.446752722346137
 20
6.0563402151415566
 11
17.048429319371667
 21
6.0563402151387891
  0
LINE
  8
0
 62
50
  6
CONTINUOUS
 10
17.446752722346137
 20
5.4619843919609128
 11
17.048429319371667
 21
5.4619843919636804
  0
LINE
  8
0
 62
50
  6
CONTINUOUS
 10
17.539267015706745
 20
6.2966295810381512
 11
17.539267015706745
 21
5.2216950260643173
  0
LINE
  8
0
 62
5
  6
CONTINUOUS
 10
17.015706806282662
 20
6.1518324606192971
 11
15.449836387434491
 21
6.1518324606192962
  0
LINE
  8
0
 62
5
  6
CONTINUOUS
 10
15.449836387434491
 20
6.1518324606192962
 11
15.379581151832399
 21
6.0815772250172042
  0
LINE
  8
0
 62
5
  6
CONTINUOUS
 10
15.379581151832399
 20
6.0815772250172042
 11
15.379581151832399
 21
5.4367473820852625
  0
LINE
  8
0
 62
5
  6
CONTINUOUS
 10
15.379581151832399
 20
5.4367473820852625
 11
15.449836387434491
 21
5.3664921464831705
  0
LINE
  8
0
 62
5
  6
CONTINUOUS
 10
15.449836387434491
 20
5.3664921464831705
 11
17.015706806282662
 21
5.3664921464831714
  0
LINE
  8
0
 62
50
  6
CONTINUOUS
 10
17.048429319371667
 20
5.0425392669020317
 11
17.048429319371667
 21
6.4757853402004377
  0
LINE
  8
0
 62
50
  6
CONTINUOUS
 10
17.048429319371667
 20
6.380890052242334
 11
17.015706806282662
 21
6.380890052242334
  0
LINE
  8
0
 62
50
  6
CONTINUOUS
 10
17.015706806282662
 20
5.1374345548601354
 11
17.048429319371667
 21
5.1374345548601354
  0
LINE
  8
0
 62
5
  6
CONTINUOUS
 10
15.379581151832399
 20
6.0815772250172042
 11
17.015706806282662
 21
6.0815772250172051
  0
LINE
  8
0
 62
5
  6
CONTINUOUS
 10
15.379581151832399
 20
5.4367473820852625
 11
17.015706806282662
 21
5.4367473820852643
  0
LINE
  8
0
 62
5
  6
DASHDOT
 10
15.248691099476378
 20
5.7591623035512338
 11
17.670157068062768
 21
5.7591623035512347
  0
ENDBLK
  0
BLOCK
  8
0
 62
140
  6
CONTINUOUS
  2
TELL_10
 70
0
 10
10.765706806282665
 20
0.81806282711144407
  0
LINE
  8
0
 62
50
  6
CONTINUOUS
 10
9.293193717277429
 20
0.98167539255646552
 11
8.9659685863873761
 21
0.65445026166641229
  0
LINE
  8
0
 62
50
  6
CONTINUOUS
 10
8.9659685863873761
 20
0.65445026166641229
 11
12.565445026177953
 21
0.65445026166642351
  0
LINE
  8
0
 62
50
  6
CONTINUOUS
 10
12.565445026177953
 20
0.65445026166642351
 11
12.565445026177953
 21
0.98167539255647585
  0
LINE
  8
0
 62
50
  6
CONTINUOUS
 10
12.565445026177953
 20
0.98167539255647585
 11
9.293193717277429
 21
0.98167539255646552
  0
ENDBLK
  0
BLOCK
  8
0
 62
5
  6
DASHDOT
  2
TELL_11
 70
0
 10
8.5078534033435886
 20
5.7591623034375479
  0
LINE
  8
0
 62
50
  6
CONTINUOUS
 10
8.4751308900522968
 20
6.4757853402004377
 11
8.0322978347041314
 21
6.4757853402004377
  0
ARC
  8
0
 62
50
  6
CONTINUOUS
 10
8.3426047120418207
 20
6.2966295810381512
 40
0.35831151832460728
 50
150
 51
222.11461043049587
  0
ARC
  8
0
 62
50
  6
CONTINUOUS
 10
8.5078534031413042
 20
5.7591623035512347
 40
0.52356020942408377
 50
145.41628176499029
 51
214.58371823500966
  0
ARC
  8
0
 62
50
  6
CONTINUOUS
 10
8.3426047120418207
 20
5.2216950260643173
 40
0.35831151832460728
 50
137.88538956950413
 51
210
  0
LINE
  8
0
 62
50
  6
CONTINUOUS
 10
8.0322978347041349
 20
5.0425392669020317
 11
8.4751308900523004
 21
5.0425392669020317
  0
LINE
  8
0
 62
50
  6
CONTINUOUS
 10
8.076807487077831
 20
6.0563402151415566
 11
8.4751308900522986
 21
6.0563402151387891
  0
LINE
  8
0
 62
50
  6
CONTINUOUS
 10
8.076807487077831
 20
5.4619843919609128
 11
8.4751308900522986
 21
5.4619843919636804
  0
LINE
  8
0
 62
50
  6
CONTINUOUS
 10
7.9842931937172201
 20
6.2966295810381512
 11
7.9842931937172201
 21
5.2216950260643173
  0
LINE
  8
0
 62
5
  6
CONTINUOUS
 10
8.5078534031413042
 20
6.1518324606192971
 11
10.073723821989473
 21
6.1518324606193016
  0
LINE
  8
0
 62
5
  6
CONTINUOUS
 10
10.073723821989473
 20
6.1518324606193016
 11
10.143979057591565
 21
6.0815772250172087
  0
LINE
  8
0
 62
5
  6
CONTINUOUS
 10
10.143979057591565
 20
6.0815772250172087
 11
10.143979057591565
 21
5.436747382085267
  0
LINE
  8
0
 62
5
  6
CONTINUOUS
 10
10.143979057591565
 20
5.436747382085267
 11
10.073723821989473
 21
5.366492146483175
  0
LINE
  8
0
 62
5
  6
CONTINUOUS
 10
10.073723821989473
 20
5.366492146483175
 11
8.5078534031413042
 21
5.3664921464831714
  0
LINE
  8
0
 62
50
  6
CONTINUOUS
 10
8.4751308900523004
 20
5.0425392669020317
 11
8.4751308900522968
 21
6.4757853402004377
  0
LINE
  8
0
 62
50
  6
CONTINUOUS
 10
8.4751308900522986
 20
6.380890052242334
 11
8.5078534031413042
 21
6.380890052242334
  0
LINE
  8
0
 62
50
  6
CONTINUOUS
 10
8.5078534031413042
 20
5.1374345548601354
 11
8.4751308900522986
 21
5.1374345548601354
  0
LINE
  8
0
 62
5
  6
CONTINUOUS
 10
10.143979057591565
 20
6.0815772250172087
 11
8.5078534031413042
 21
6.0815772250172051
  0
LINE
  8
0
 62
5
  6
CONTINUOUS
 10
10.143979057591565
 20
5.436747382085267
 11
8.5078534031413042
 21
5.4367473820852643
  0
LINE
  8
0
 62
5
  6
DASHDOT
 10
10.274869109947586
 20
5.7591623035512383
 11
7.8534031413611984
 21
5.7591623035512347
  0
ENDBLK
  0
BLOCK
  8
249
 62
5
  6
DASHDOT
  2
TELL_12
 70
0
 10
10.929319371727662
 20
2.159685863874286
  0
CIRCLE
  8
249
 62
50
  6
CONTINUOUS
 10
10.929319371727662
 20
2.159685863874286
 40
0.32241492146596856
  0
ARC
  8
249
 62
5
  6
CONTINUOUS
 10
10.929319371727662
 20
2.159685863874286
 40
0.39267015706806285
 50
175.00000000000003
 51
90
  0
LINE
  8
249
 62
5
  6
DASHDOT
 10
10.929319371727662
 20
2.6832460732983696
 11
10.929319371727662
 21
1.6361256544502023
  0
LINE
  8
249
 62
5
  6
DASHDOT
 10
10.405759162303577
 20
2.159685863874286
 11
11.452879581151745
 21
2.159685863874286
  0
ENDBLK
  0
BLOCK
  8
0
 62
5
  6
DASHDOT
  2
TELL_13
 70
0
 10
14.594240837696303
 20
2.159685863874286
  0
CIRCLE
  8
0
 62
50
  6
CONTINUOUS
 10
14.594240837696303
 20
2.159685863874286
 40
0.32241492146596856
  0
ARC
  8
0
 62
5
  6
CONTINUOUS
 10
14.594240837696303
 20
2.159685863874286
 40
0.39267015706806285
 50
175.00000000000003
 51
90
  0
LINE
  8
0
 62
5
  6
DASHDOT
 10
14.594240837696303
 20
2.6832460732983696
 11
14.594240837696303
 21
1.6361256544502023
  0
LINE
  8
0
 62
5
  6
DASHDOT
 10
14.070680628272219
 20
2.159685863874286
 11
15.117801047120388
 21
2.159685863874286
  0
ENDBLK
  0
BLOCK
  8
0
 62
5
  6
DASHDOT
  2
TELL_14
 70
0
 10
10.929319371727662
 20
5.759162303551264
  0
CIRCLE
  8
0
 62
50
  6
CONTINUOUS
 10
10.929319371727662
 20
5.759162303551264
 40
0.32241492146596856
  0
ARC
  8
0
 62
5
  6
CONTINUOUS
 10
10.929319371727662
 20
5.759162303551264
 40
0.39267015706806285
 50
175.00000000000003
 51
90
  0
LINE
  8
0
 62
5
  6
DASHDOT
 10
10.929319371727662
 20
6.2827225129753481
 11
10.929319371727662
 21
5.2356020941271808
  0
LINE
  8
0
 62
5
  6
DASHDOT
 10
10.405759162303577
 20
5.759162303551264
 11
11.452879581151745
 21
5.759162303551264
  0
ENDBLK
  0
BLOCK
  8
0
 62
5
  6
DASHDOT
  2
TELL_15
 70
0
 10
14.594240837696303
 20
5.759162303551264
  0
CIRCLE
  8
0
 62
50
  6
CONTINUOUS
 10
14.594240837696303
 20
5.759162303551264
 40
0.32241492146596856
  0
ARC
  8
0
 62
5
  6
CONTINUOUS
 10
14.594240837696303
 20
5.759162303551264
 40
0.39267015706806285
 50
175.00000000000003
 51
90
  0
LINE
  8
0
 62
5
  6
DASHDOT
 10
14.594240837696303
 20
6.2827225129753481
 11
14.594240837696303
 21
5.2356020941271808
  0
LINE
  8
0
 62
5
  6
DASHDOT
 10
14.070680628272219
 20
5.759162303551264
 11
15.117801047120388
 21
5.759162303551264
  0
ENDBLK
  0
BLOCK
  8
0
 62
50
  6
CONTINUOUS
  2
3_50_CRD
 70
0
 10
12.565445026374343
 20
-2.2737367544306282e-010
  0
INSERT
  8
0
 62
140
  6
CONTINUOUS
  2
TELL_8
 10
14.757853403141301
 20
0.81806282711144407
 41
1.0
 42
1.0
 50
0.0
  0
LINE
  8
0
 62
50
  6
CONTINUOUS
 10
16.230366492146537
 20
0.98167539255647018
 11
16.557591623036586
 21
0.65445026166641784
  0
LINE
  8
0
 62
50
  6
CONTINUOUS
 10
12.958115183246012
 20
0.65445026166641784
 11
12.958115183246012
 21
7.1989528794674653
  0
LINE
  8
0
 62
50
  6
CONTINUOUS
 10
16.230366492146537
 20
7.1989528794674653
 11
16.230366492146537
 21
7.0680628271114436
  0
LINE
  8
0
 62
50
  6
CONTINUOUS
 10
16.230366492146537
 20
4.4502617799910249
 11
16.230366492146537
 21
0.98167539255647018
  0
LINE
  8
0
 62
50
  6
CONTINUOUS
 10
12.958115183246012
 20
7.1989528794674653
 11
16.230366492146537
 21
7.1989528794674653
  0
LINE
  8
0
 62
5
  6
CONTINUOUS
 10
13.416230366289801
 20
0.98167539244278335
 11
13.416230366289801
 21
7.1989528793537785
  0
LINE
  8
0
 62
5
  6
CONTINUOUS
 10
15.772251308698177
 20
4.4502617798773381
 11
15.772251308698177
 21
0.98167539244278335
  0
LINE
  8
0
 62
50
  6
CONTINUOUS
 10
17.015706806282662
 20
7.0680628271114436
 11
17.015706806282662
 21
4.4502617799910249
  0
LINE
  8
0
 62
50
  6
CONTINUOUS
 10
15.44502617801041
 20
7.0680628271114436
 11
17.015706806282662
 21
7.0680628271114436
  0
LINE
  8
0
 62
50
  6
CONTINUOUS
 10
15.44502617801041
 20
4.4502617799910249
 11
17.015706806282662
 21
4.4502617799910249
  0
LINE
  8
0
 62
50
  6
CONTINUOUS
 10
15.44502617801041
 20
4.4502617799910249
 11
15.44502617801041
 21
7.0680628271114436
  0
LINE
  8
0
 62
50
  6
CONTINUOUS
 10
5.2356020942407779
 20
-1.1368683772161603e-010
 11
5.2356020942407779
 21
0.65445026166641784
  0
LINE
  8
0
 62
50
  6
CONTINUOUS
 10
5.2356020942407779
 20
0.65445026166641784
 11
20.287958115183187
 21
0.65445026166641784
  0
LINE
  8
0
 62
50
  6
CONTINUOUS
 10
20.287958115183187
 20
0.65445026166641784
 11
20.287958115183187
 21
-1.1368683772161603e-010
  0
LINE
  8
0
 62
50
  6
CONTINUOUS
 10
20.287958115183187
 20
-1.1368683772161603e-010
 11
5.2356020942407779
 21
-1.1368683772161603e-010
  0
INSERT
  8
0
 62
5
  6
DASHDOT
  2
TELL_9
 10
17.015706806080377
 20
5.7591623034375479
 41
1.0
 42
1.0
 50
0.0
  0
LINE
  8
0
 62
5
  6
DASHDOT
 10
6.7081151832460133
 20
-0.2061578063514832
 11
6.7081151832460133
 21
0.86060806790421429
  0
LINE
  8
0
 62
5
  6
DASHDOT
 10
18.815445026177951
 20
-0.2061578063514832
 11
18.815445026177951
 21
0.86060806790421429
  0
LINE
  8
0
 62
50
  6
CONTINUOUS
 10
16.230366492146537
 20
0.98167539255647018
 11
12.958115183246012
 21
0.98167539255647018
  0
INSERT
  8
0
 62
140
  6
CONTINUOUS
  2
TELL_10
 10
10.765706806282665
 20
0.81806282711144407
 41
1.0
 42
1.0
 50
0.0
  0
LINE
  8
0
 62
50
  6
CONTINUOUS
 10
9.293193717277429
 20
0.98167539255647018
 11
8.9659685863873761
 21
0.65445026166641784
  0
LINE
  8
0
 62
50
  6
CONTINUOUS
 10
12.565445026177953
 20
0.65445026166641784
 11
12.565445026177953
 21
7.1989528794674653
  0
LINE
  8
0
 62
50
  6
CONTINUOUS
 10
9.293193717277429
 20
7.1989528794674653
 11
9.293193717277429
 21
7.0680628271114436
  0
LINE
  8
0
 62
50
  6
CONTINUOUS
 10
9.293193717277429
 20
4.4502617799910249
 11
9.293193717277429
 21
0.98167539255647018
  0
LINE
  8
0
 62
50
  6
CONTINUOUS
 10
12.565445026177953
 20
7.1989528794674653
 11
9.293193717277429
 21
7.1989528794674653
  0
LINE
  8
0
 62
5
  6
CONTINUOUS
 10
12.107329843134165
 20
0.98167539244278335
 11
12.107329843134165
 21
7.1989528793537785
  0
LINE
  8
0
 62
5
  6
CONTINUOUS
 10
9.7513089007257872
 20
4.4502617798773381
 11
9.7513089007257872
 21
0.98167539244278335
  0
LINE
  8
0
 62
50
  6
CONTINUOUS
 10
8.5078534031413042
 20
7.0680628271114436
 11
8.5078534031413042
 21
4.4502617799910249
  0
LINE
  8
0
 62
50
  6
CONTINUOUS
 10
10.078534031413556
 20
7.0680628271114436
 11
8.5078534031413042
 21
7.0680628271114436
  0
LINE
  8
0
 62
50
  6
CONTINUOUS
 10
10.078534031413556
 20
4.4502617799910249
 11
8.5078534031413042
 21
4.4502617799910249
  0
LINE
  8
0
 62
50
  6
CONTINUOUS
 10
10.078534031413556
 20
4.4502617799910249
 11
10.078534031413556
 21
7.0680628271114436
  0
INSERT
  8
0
 62
5
  6
DASHDOT
  2
TELL_11
 10
8.5078534033435886
 20
5.7591623034375479
 41
1.0
 42
1.0
 50
0.0
  0
LINE
  8
0
 62
50
  6
CONTINUOUS
 10
9.293193717277429
 20
0.98167539255647018
 11
12.565445026177953
 21
0.98167539255647018
  0
LINE
  8
0
 62
5
  6
CONTINUOUS
 10
9.0314136125653874
 20
4.5811518323470457
 11
9.0314136125653874
 21
6.9371727747554228
  0
LINE
  8
0
 62
5
  6
CONTINUOUS
 10
16.492146596858579
 20
4.5811518323470457
 11
16.492146596858579
 21
6.9371727747554228
  0
INSERT
  8
249
 62
5
  6
DASHDOT
  2
TELL_12
 10
10.929319371727662
 20
2.159685863874286
 41
1.0
 42
1.0
 50
0.0
  0
INSERT
  8
0
 62
5
  6
DASHDOT
  2
TELL_13
 10
14.594240837696303
 20
2.159685863874286
 41
1.0
 42
1.0
 50
0.0
  0
INSERT
  8
0
 62
5
  6
DASHDOT
  2
TELL_14
 10
10.929319371727662
 20
5.759162303551264
 41
1.0
 42
1.0
 50
0.0
  0
INSERT
  8
0
 62
5
  6
DASHDOT
  2
TELL_15
 10
14.594240837696303
 20
5.759162303551264
 41
1.0
 42
1.0
 50
0.0
  0
ENDBLK
  0
ENDSEC
  0
SECTION
  2
ENTITIES
  0
INSERT
  8
0
 62
5
  6
DASHDOT
  2
TELL_1
 10
-5.691186905104712e-010
 20
-2.2737367544306282e-010
 41
1.0
 42
1.0
 50
0.0
  0
INSERT
  8
0
 62
5
  6
DASHDOT
  2
TELL_5
 10
8.535441114790575e-011
 20
-10.143979057787957
 41
1.0
 42
1.0
 50
0.0
  0
INSERT
  8
0
 62
50
  6
CONTINUOUS
  2
3_50_CRD
 10
12.565445026374343
 20
-2.2737367544306282e-010
 41
1.0
 42
1.0
 50
0.0
  0
ENDSEC
  0
EOF
