  0
SECTION
  2
HEADER
  9
$ACADVER
  1
AC1009
  9
$EXTMIN
 10
-2.8409090909091552
 20
-17.187499999999996
  9
$EXTMAX
 10
19.886363636363569
 20
7.8124999999999991
  9
$TEXTSTYLE
  7
STANDARD
  9
$DIMLFAC
 40
1
  9
$REGENMODE
 70
1
  9
$DRAGMODE
 70
2
  9
$DIMASO
 70
1
  9
$LTSCALE
 40
1.0000000000
  0
ENDSEC
  0
SECTION
  2
TABLES
  0
TABLE
  2
LTYPE
 70
2
  0
LTYPE
  2
CONTINUOUS
 70
64
  3
CONTINUOUS
 72
65
 73
0
 40
0.0000000000
  0
LTYPE
  2
DASHDOT
 70
64
  3
DASHDOT
 72
65
 73
4
 40
1.0000000000
 49
0.5000000000
 49
-0.2500000000
 49
0.0000000000
 49
-0.2500000000
  0
ENDTAB
  0
TABLE
  2
LAYER
 70
2
  0
LAYER
  2
0
 70
0
 62
2
  6
CONTINUOUS
  0
LAYER
  2
249
 70
0
 62
2
  6
CONTINUOUS
  0
ENDTAB
  0
TABLE
  2
STYLE
 70
0
  0
STYLE
  2
Standard
 70
0
 40
0
 41
1
 50
0
 71
0
 42
2.5
  3
txt
  4

  0
ENDTAB
  0
ENDSEC
  0
SECTION
  2
BLOCKS
  0
BLOCK
  8
0
 62
140
  6
CONTINUOUS
  2
TELL_2
 70
0
 10
-6.4594794160009101e-014
 20
0.88778409090909083
  0
LINE
  8
0
 62
50
  6
CONTINUOUS
 10
-1.7755681818182463
 20
1.0653409090909089
 11
-1.7642633943574861
 21
1.0653409090909089
  0
LINE
  8
0
 62
50
  6
CONTINUOUS
 10
-1.764263393081416
 20
1.0653409090909089
 11
-1.763103365431365
 21
1.0637908319631153
  0
LINE
  8
0
 62
50
  6
CONTINUOUS
 10
-1.763103365431365
 20
1.063790830257942
 11
-1.7562786662830245
 21
1.0653409090909089
  0
LINE
  8
0
 62
50
  6
CONTINUOUS
 10
-1.7562786662830245
 20
1.0653409090909089
 11
-1.7324812782104906
 21
1.0653409090909089
  0
LINE
  8
0
 62
50
  6
CONTINUOUS
 10
-1.7324812742214393
 20
1.0653409090909089
 11
-1.7263339542129006
 21
1.0634806233053238
  0
LINE
  8
0
 62
50
  6
CONTINUOUS
 10
-1.7263339542129006
 20
1.0634806235609255
 11
-1.7184045997988757
 21
1.0653409090909089
  0
LINE
  8
0
 62
50
  6
CONTINUOUS
 10
-1.7184045930288567
 20
1.0653409090909089
 11
-1.6769907942954954
 21
1.0653409090909089
  0
LINE
  8
0
 62
50
  6
CONTINUOUS
 10
-1.6769907802155741
 20
1.0653409090909089
 11
-1.6671037199770919
 21
1.0644110557535345
  0
LINE
  8
0
 62
50
  6
CONTINUOUS
 10
-1.6671037199770919
 20
1.0644110559257765
 11
-1.6633317056866173
 21
1.0653409090909089
  0
LINE
  8
0
 62
50
  6
CONTINUOUS
 10
-1.6633316991963261
 20
1.0653409090909089
 11
-1.5921547346642546
 21
1.0653409090909089
  0
LINE
  8
0
 62
50
  6
CONTINUOUS
 10
-1.5921547294079825
 20
1.0653409090909089
 11
-1.588382713992331
 21
1.0644110557393236
  0
LINE
  8
0
 62
50
  6
CONTINUOUS
 10
-1.588382713992331
 20
1.0644110558205515
 11
-1.5726475489782967
 21
1.0653409090909089
  0
LINE
  8
0
 62
50
  6
CONTINUOUS
 10
-1.5726475253529122
 20
1.0653409090909089
 11
-1.506737842423175
 21
1.0653409090909089
  0
LINE
  8
0
 62
50
  6
CONTINUOUS
 10
-1.5067378332600805
 20
1.0653409090909089
 11
-1.4941183362090915
 21
1.063480623377121
  0
LINE
  8
0
 62
50
  6
CONTINUOUS
 10
-1.4941183362090915
 20
1.0634806234310898
 11
-1.4765503062942673
 21
1.0653409090909089
  0
LINE
  8
0
 62
50
  6
CONTINUOUS
 10
-1.4765502927694416
 20
1.0653409090909089
 11
-1.4085412645434432
 21
1.0653409090909089
  0
LINE
  8
0
 62
50
  6
CONTINUOUS
 10
-1.408541247035024
 20
1.0653409090909089
 11
-1.3890373961431313
 21
1.0637908318062792
  0
LINE
  8
0
 62
50
  6
CONTINUOUS
 10
-1.3890373961431313
 20
1.0637908318230092
 11
-1.3787418652726235
 21
1.0653409090909089
  0
LINE
  8
0
 62
50
  6
CONTINUOUS
 10
-1.3787418556773898
 20
1.0653409090909089
 11
1.3787418556773252
 21
1.0653409090909089
  0
LINE
  8
0
 62
50
  6
CONTINUOUS
 10
1.3787418652724299
 20
1.0653409090909089
 11
1.389037396143002
 21
1.063790831822977
  0
LINE
  8
0
 62
50
  6
CONTINUOUS
 10
1.389037396143002
 20
1.0637908318063114
 11
1.408541247034572
 21
1.0653409090909089
  0
LINE
  8
0
 62
50
  6
CONTINUOUS
 10
1.4085412645431201
 20
1.0653409090909089
 11
1.4765502927695384
 21
1.0653409090909089
  0
LINE
  8
0
 62
50
  6
CONTINUOUS
 10
1.4765503062943319
 20
1.0653409090909089
 11
1.4941183362089623
 21
1.0634806234311223
  0
LINE
  8
0
 62
50
  6
CONTINUOUS
 10
1.4941183362089623
 20
1.063480623377121
 11
1.5067378332599513
 21
1.0653409090909089
  0
LINE
  8
0
 62
50
  6
CONTINUOUS
 10
1.5067378424228843
 20
1.0653409090909089
 11
1.572647525353106
 21
1.0653409090909089
  0
LINE
  8
0
 62
50
  6
CONTINUOUS
 10
1.5726475489783291
 20
1.0653409090909089
 11
1.5883827139922018
 21
1.0644110558205515
  0
LINE
  8
0
 62
50
  6
CONTINUOUS
 10
1.5883827139922018
 20
1.0644110557393558
 11
1.5921547294077887
 21
1.0653409090909089
  0
LINE
  8
0
 62
50
  6
CONTINUOUS
 10
1.5921547346639964
 20
1.0653409090909089
 11
1.6633316991962614
 21
1.0653409090909089
  0
LINE
  8
0
 62
50
  6
CONTINUOUS
 10
1.6633317056864234
 20
1.0653409090909089
 11
1.6671037199769627
 21
1.0644110559257443
  0
LINE
  8
0
 62
50
  6
CONTINUOUS
 10
1.6671037199769627
 20
1.0644110557535345
 11
1.6769907802155095
 21
1.0653409090909089
  0
LINE
  8
0
 62
50
  6
CONTINUOUS
 10
1.6769907942951723
 20
1.0653409090909089
 11
1.7184045930288891
 21
1.0653409090909089
  0
LINE
  8
0
 62
50
  6
CONTINUOUS
 10
1.7184045997986819
 20
1.0653409090909089
 11
1.7263339542127714
 21
1.0634806235609255
  0
LINE
  8
0
 62
50
  6
CONTINUOUS
 10
1.7263339542127714
 20
1.0634806233053238
 11
1.7324812742212454
 21
1.0653409090909089
  0
LINE
  8
0
 62
50
  6
CONTINUOUS
 10
1.7324812782102323
 20
1.0653409090909089
 11
1.7562786662828953
 21
1.0653409090909089
  0
LINE
  8
0
 62
50
  6
CONTINUOUS
 10
1.7562786662828953
 20
1.0653409090909089
 11
1.7631033654312358
 21
1.063790830257942
  0
LINE
  8
0
 62
50
  6
CONTINUOUS
 10
1.7631033654312358
 20
1.0637908319631475
 11
1.7642633930812222
 21
1.0653409090909089
  0
LINE
  8
0
 62
50
  6
CONTINUOUS
 10
1.7642633943573569
 20
1.0653409090909089
 11
1.775568181818117
 21
1.0653409090909089
  0
LINE
  8
0
 62
50
  6
CONTINUOUS
 10
1.775568181818117
 20
1.0653409090909089
 11
2.1306818181817535
 21
0.71022727272727271
  0
LINE
  8
0
 62
50
  6
CONTINUOUS
 10
2.1306818181817535
 20
0.71022727272727271
 11
-2.1306818181818827
 21
0.71022727272727271
  0
LINE
  8
0
 62
50
  6
CONTINUOUS
 10
-2.1306818181818827
 20
0.71022727272727271
 11
-1.7755681818182463
 21
1.0653409090909089
  0
ENDBLK
  0
BLOCK
  8
249
 62
5
  6
DASHDOT
  2
TELL_3
 70
0
 10
-6.4594794160009101e-014
 20
6.2499999999999991
  0
LINE
  8
249
 62
50
  6
CONTINUOUS
 10
-6.4594794160009101e-014
 20
7.0290948234803281
 11
-0.67471590909097356
 21
6.6395474117401472
  0
LINE
  8
249
 62
50
  6
CONTINUOUS
 10
-0.67471590909097356
 20
6.6395474117401472
 11
-0.67471590909097356
 21
5.860452588259851
  0
LINE
  8
249
 62
50
  6
CONTINUOUS
 10
-0.67471590909097356
 20
5.860452588259851
 11
-6.4594794160009101e-014
 21
5.470905176519671
  0
LINE
  8
249
 62
50
  6
CONTINUOUS
 10
-6.4594794160009101e-014
 20
5.470905176519671
 11
0.67471590909084445
 21
5.860452588259851
  0
LINE
  8
249
 62
50
  6
CONTINUOUS
 10
0.67471590909084445
 20
5.860452588259851
 11
0.67471590909084445
 21
6.6395474117401472
  0
LINE
  8
249
 62
50
  6
CONTINUOUS
 10
0.67471590909084445
 20
6.6395474117401472
 11
-6.4594794160009101e-014
 21
7.0290948234803281
  0
CIRCLE
  8
249
 62
50
  6
CONTINUOUS
 10
-6.4594794160009101e-014
 20
6.2499999999999991
 40
0.67471590909090906
  0
LINE
  8
249
 62
5
  6
DASHDOT
 10
-6.4594794160009101e-014
 20
5.328859721974216
 11
-6.4594794160009101e-014
 21
7.1711402780257822
  0
LINE
  8
249
 62
5
  6
DASHDOT
 10
-0.92114027802581544
 20
6.2499999999999991
 11
0.92114027802571863
 21
6.2499999999999991
  0
ENDBLK
  0
BLOCK
  8
249
 62
5
  6
DASHDOT
  2
TELL_4
 70
0
 10
1.3378536036535321e-090
 20
2.3437499999999352
  0
CIRCLE
  8
249
 62
50
  6
CONTINUOUS
 10
1.3378536036535321e-090
 20
2.3437499999999352
 40
0.34989346590909087
  0
ARC
  8
249
 62
5
  6
CONTINUOUS
 10
1.3378536036535321e-090
 20
2.3437499999999352
 40
0.42613636363636359
 50
175.00000000000003
 51
90
  0
LINE
  8
249
 62
5
  6
DASHDOT
 10
3.4791096246800331e-017
 20
2.9119318181817531
 11
-3.4791096246800331e-017
 21
1.775568181818117
  0
LINE
  8
249
 62
5
  6
DASHDOT
 10
-0.56818181818181812
 20
2.3437499999999352
 11
0.56818181818181812
 21
2.3437499999999352
  0
ENDBLK
  0
BLOCK
  8
0
 62
5
  6
DASHDOT
  2
TELL_1
 70
0
 10
-3.0886000827627839e-010
 20
-1.2337605684588067e-010
  0
INSERT
  8
0
 62
140
  6
CONTINUOUS
  2
TELL_2
 10
-6.4594794160009101e-014
 20
0.88778409090909083
 41
1.0
 42
1.0
 50
0.0
  0
LINE
  8
0
 62
50
  6
CONTINUOUS
 10
-1.7755681818182463
 20
1.0653409090909089
 11
-1.7642633943574861
 21
1.0653409090909089
  0
LINE
  8
0
 62
50
  6
CONTINUOUS
 10
-2.1306818181818827
 20
0.71022727272727271
 11
-1.7755681818182463
 21
1.0653409090909089
  0
LINE
  8
0
 62
50
  6
CONTINUOUS
 10
1.775568181818117
 20
1.0653409090909089
 11
2.1306818181817535
 21
0.71022727272727271
  0
LINE
  8
0
 62
50
  6
CONTINUOUS
 10
1.775568181818117
 20
7.8124999999999991
 11
1.775568181818117
 21
7.670454545454545
  0
LINE
  8
0
 62
50
  6
CONTINUOUS
 10
1.7642633930812222
 20
1.0653409090909089
 11
1.7631033654312358
 21
1.0637908319631475
  0
LINE
  8
0
 62
50
  6
CONTINUOUS
 10
1.775568181818117
 20
4.8295454545454541
 11
1.775568181818117
 21
1.0653409090909089
  0
LINE
  8
0
 62
50
  6
CONTINUOUS
 10
-1.7755681818182463
 20
7.8124999999999991
 11
1.775568181818117
 21
7.8124999999999991
  0
LINE
  8
0
 62
50
  6
CONTINUOUS
 10
-1.7755681818182463
 20
1.0653409090909089
 11
-1.7755681818182463
 21
4.8295454545454541
  0
LINE
  8
0
 62
50
  6
CONTINUOUS
 10
-1.763103365431365
 20
1.0637908319631153
 11
-1.764263393081416
 21
1.0653409090909089
  0
LINE
  8
0
 62
50
  6
CONTINUOUS
 10
-1.7755681818182463
 20
7.670454545454545
 11
-1.7755681818182463
 21
7.8124999999999991
  0
LINE
  8
0
 62
50
  6
CONTINUOUS
 10
1.7324812782102323
 20
1.0653409090909089
 11
1.7562786662828953
 21
1.0653409090909089
  0
LINE
  8
0
 62
50
  6
CONTINUOUS
 10
1.7642633943573569
 20
1.0653409090909089
 11
1.775568181818117
 21
1.0653409090909089
  0
LINE
  8
0
 62
50
  6
CONTINUOUS
 10
1.7562786662828953
 20
1.0653409090909089
 11
1.7631033654312358
 21
1.063790830257942
  0
LINE
  8
0
 62
50
  6
CONTINUOUS
 10
-1.7562786662830245
 20
1.0653409090909089
 11
-1.7324812782104906
 21
1.0653409090909089
  0
LINE
  8
0
 62
50
  6
CONTINUOUS
 10
-1.763103365431365
 20
1.063790830257942
 11
-1.7562786662830245
 21
1.0653409090909089
  0
LINE
  8
0
 62
50
  6
CONTINUOUS
 10
-1.7263339542129006
 20
1.0634806233053238
 11
-1.7324812742214393
 21
1.0653409090909089
  0
LINE
  8
0
 62
50
  6
CONTINUOUS
 10
1.7324812742212454
 20
1.0653409090909089
 11
1.7263339542127714
 21
1.0634806233053238
  0
LINE
  8
0
 62
50
  6
CONTINUOUS
 10
-1.6671037199770919
 20
1.0644110557535345
 11
-1.6769907802155741
 21
1.0653409090909089
  0
LINE
  8
0
 62
50
  6
CONTINUOUS
 10
-1.7184045997988757
 20
1.0653409090909089
 11
-1.7263339542129006
 21
1.0634806235609255
  0
LINE
  8
0
 62
50
  6
CONTINUOUS
 10
1.6769907802155095
 20
1.0653409090909089
 11
1.6671037199769627
 21
1.0644110557535345
  0
LINE
  8
0
 62
50
  6
CONTINUOUS
 10
1.7263339542127714
 20
1.0634806235609255
 11
1.7184045997986819
 21
1.0653409090909089
  0
LINE
  8
0
 62
50
  6
CONTINUOUS
 10
-1.588382713992331
 20
1.0644110557393236
 11
-1.5921547294079825
 21
1.0653409090909089
  0
LINE
  8
0
 62
50
  6
CONTINUOUS
 10
-1.6633317056866173
 20
1.0653409090909089
 11
-1.6671037199770919
 21
1.0644110559257765
  0
LINE
  8
0
 62
50
  6
CONTINUOUS
 10
1.5921547294077887
 20
1.0653409090909089
 11
1.5883827139922018
 21
1.0644110557393558
  0
LINE
  8
0
 62
50
  6
CONTINUOUS
 10
1.6671037199769627
 20
1.0644110559257443
 11
1.6633317056864234
 21
1.0653409090909089
  0
LINE
  8
0
 62
50
  6
CONTINUOUS
 10
-1.7184045930288567
 20
1.0653409090909089
 11
-1.6769907942954954
 21
1.0653409090909089
  0
LINE
  8
0
 62
50
  6
CONTINUOUS
 10
1.5921547346639964
 20
1.0653409090909089
 11
1.6633316991962614
 21
1.0653409090909089
  0
LINE
  8
0
 62
50
  6
CONTINUOUS
 10
1.6769907942951723
 20
1.0653409090909089
 11
1.7184045930288891
 21
1.0653409090909089
  0
LINE
  8
0
 62
50
  6
CONTINUOUS
 10
-1.4941183362090915
 20
1.063480623377121
 11
-1.5067378332600805
 21
1.0653409090909089
  0
LINE
  8
0
 62
50
  6
CONTINUOUS
 10
-1.5726475489782967
 20
1.0653409090909089
 11
-1.588382713992331
 21
1.0644110558205515
  0
LINE
  8
0
 62
50
  6
CONTINUOUS
 10
1.5067378332599513
 20
1.0653409090909089
 11
1.4941183362089623
 21
1.063480623377121
  0
LINE
  8
0
 62
50
  6
CONTINUOUS
 10
1.5883827139922018
 20
1.0644110558205515
 11
1.5726475489783291
 21
1.0653409090909089
  0
LINE
  8
0
 62
50
  6
CONTINUOUS
 10
1.408541247034572
 20
1.0653409090909089
 11
1.389037396143002
 21
1.0637908318063114
  0
LINE
  8
0
 62
50
  6
CONTINUOUS
 10
1.4941183362089623
 20
1.0634806234311223
 11
1.4765503062943319
 21
1.0653409090909089
  0
LINE
  8
0
 62
50
  6
CONTINUOUS
 10
-1.3890373961431313
 20
1.0637908318062792
 11
-1.408541247035024
 21
1.0653409090909089
  0
LINE
  8
0
 62
50
  6
CONTINUOUS
 10
-1.4765503062942673
 20
1.0653409090909089
 11
-1.4941183362090915
 21
1.0634806234310898
  0
LINE
  8
0
 62
50
  6
CONTINUOUS
 10
-1.3787418652726235
 20
1.0653409090909089
 11
-1.3890373961431313
 21
1.0637908318230092
  0
LINE
  8
0
 62
50
  6
CONTINUOUS
 10
1.389037396143002
 20
1.063790831822977
 11
1.3787418652724299
 21
1.0653409090909089
  0
LINE
  8
0
 62
5
  6
CONTINUOUS
 10
-1.2784090912179509
 20
1.065340908967533
 11
-1.2784090912179509
 21
4.8295454544220782
  0
LINE
  8
0
 62
5
  6
CONTINUOUS
 10
1.2784090906002308
 20
4.8295454544220782
 11
1.2784090906002308
 21
1.065340908967533
  0
LINE
  8
0
 62
50
  6
CONTINUOUS
 10
-1.6633316991963261
 20
1.0653409090909089
 11
-1.5921547346642546
 21
1.0653409090909089
  0
LINE
  8
0
 62
50
  6
CONTINUOUS
 10
-1.5726475253529122
 20
1.0653409090909089
 11
-1.506737842423175
 21
1.0653409090909089
  0
LINE
  8
0
 62
50
  6
CONTINUOUS
 10
1.4085412645431201
 20
1.0653409090909089
 11
1.4765502927695384
 21
1.0653409090909089
  0
LINE
  8
0
 62
50
  6
CONTINUOUS
 10
1.5067378424228843
 20
1.0653409090909089
 11
1.572647525353106
 21
1.0653409090909089
  0
LINE
  8
0
 62
50
  6
CONTINUOUS
 10
-1.4765502927694416
 20
1.0653409090909089
 11
-1.4085412645434432
 21
1.0653409090909089
  0
LINE
  8
0
 62
50
  6
CONTINUOUS
 10
-1.3787418556773898
 20
1.0653409090909089
 11
1.3787418556773252
 21
1.0653409090909089
  0
LINE
  8
0
 62
50
  6
CONTINUOUS
 10
-2.3082386363637006
 20
4.8295454545454541
 11
-2.3082386363637006
 21
7.670454545454545
  0
LINE
  8
0
 62
50
  6
CONTINUOUS
 10
2.3082386363635714
 20
7.670454545454545
 11
2.3082386363635714
 21
4.8295454545454541
  0
LINE
  8
0
 62
50
  6
CONTINUOUS
 10
-2.3082386363637006
 20
4.8295454545454541
 11
2.3082386363635714
 21
4.8295454545454541
  0
LINE
  8
0
 62
50
  6
CONTINUOUS
 10
-2.3082386363637006
 20
7.670454545454545
 11
2.3082386363635714
 21
7.670454545454545
  0
LINE
  8
0
 62
5
  6
CONTINUOUS
 10
-1.7400568184906779
 20
4.936079545331169
 11
-1.7400568184906779
 21
7.5639204544220773
  0
LINE
  8
0
 62
5
  6
CONTINUOUS
 10
1.7400568178729581
 20
7.5639204544220773
 11
1.7400568178729581
 21
4.936079545331169
  0
LINE
  8
0
 62
50
  6
CONTINUOUS
 10
-2.8409090909091552
 20
0
 11
-2.8409090909091552
 21
0.71022727272727271
  0
LINE
  8
0
 62
50
  6
CONTINUOUS
 10
-2.8409090909091552
 20
0.71022727272727271
 11
-2.1306818181818827
 21
0.71022727272727271
  0
LINE
  8
0
 62
50
  6
CONTINUOUS
 10
-2.1306818181818827
 20
0.71022727272727271
 11
2.1306818181817535
 21
0.71022727272727271
  0
LINE
  8
0
 62
50
  6
CONTINUOUS
 10
2.1306818181817535
 20
0.71022727272727271
 11
2.840909090909026
 21
0.71022727272727271
  0
LINE
  8
0
 62
50
  6
CONTINUOUS
 10
2.840909090909026
 20
0.71022727272727271
 11
2.840909090909026
 21
0
  0
LINE
  8
0
 62
50
  6
CONTINUOUS
 10
2.840909090909026
 20
0
 11
-2.8409090909091552
 21
0
  0
INSERT
  8
249
 62
5
  6
DASHDOT
  2
TELL_3
 10
-6.4594794160009101e-014
 20
6.2499999999999991
 41
1.0
 42
1.0
 50
0.0
  0
INSERT
  8
249
 62
5
  6
DASHDOT
  2
TELL_4
 10
1.3378536036535321e-090
 20
2.3437499999999352
 41
1.0
 42
1.0
 50
0.0
  0
LINE
  8
0
 62
5
  6
DASHDOT
 10
-3.4791096246800331e-017
 20
1.775568181818117
 11
-3.4791096246800331e-017
 21
-0.5087184214323287
  0
ENDBLK
  0
BLOCK
  8
0
 62
5
  6
DASHDOT
  2
TELL_6
 70
0
 10
-3.0886000827608353e-010
 20
-12.571022727396102
  0
LINE
  8
0
 62
50
  6
CONTINUOUS
 10
0.77769886363635066
 20
-12.606534090911738
 11
0.77769886363635066
 21
-13.087108599840713
  0
ARC
  8
0
 62
50
  6
CONTINUOUS
 10
0.58327414772724684
 20
-12.750355113639017
 40
0.38884943181818177
 50
227.88538956950413
 51
300
  0
ARC
  8
0
 62
50
  6
CONTINUOUS
 10
0
 20
-12.571022727275375
 40
0.56818181818181812
 50
235.41628176499029
 51
304.58371823500971
  0
ARC
  8
0
 62
50
  6
CONTINUOUS
 10
-0.58327414772731145
 20
-12.750355113639017
 40
0.38884943181818177
 50
240
 51
312.11461043049587
  0
LINE
  8
0
 62
50
  6
CONTINUOUS
 10
-0.77769886363638296
 20
-13.087108599840713
 11
-0.77769886363638296
 21
-12.606534090911738
  0
LINE
  8
0
 62
50
  6
CONTINUOUS
 10
0.32250557450991962
 20
-13.038805511185167
 11
0.32250557450694822
 21
-12.606534090911738
  0
LINE
  8
0
 62
50
  6
CONTINUOUS
 10
-0.32250557450995188
 20
-13.038805511185167
 11
-0.32250557450694822
 21
-12.606534090911738
  0
LINE
  8
0
 62
50
  6
CONTINUOUS
 10
0.58327414772724684
 20
-13.139204545457192
 11
-0.58327414772731145
 21
-13.139204545457192
  0
LINE
  8
0
 62
5
  6
CONTINUOUS
 10
0.42613636363636359
 20
-12.571022727275375
 11
0.42613636363636359
 21
-10.871697443184463
  0
LINE
  8
0
 62
5
  6
CONTINUOUS
 10
0.42613636363636359
 20
-10.871697443184463
 11
0.3498934659090609
 21
-10.795454545457194
  0
LINE
  8
0
 62
5
  6
CONTINUOUS
 10
0.3498934659090609
 20
-10.795454545457194
 11
-0.34989346590912551
 21
-10.795454545457194
  0
LINE
  8
0
 62
5
  6
CONTINUOUS
 10
-0.34989346590912551
 20
-10.795454545457194
 11
-0.42613636363636359
 21
-10.871697443184463
  0
LINE
  8
0
 62
5
  6
CONTINUOUS
 10
-0.42613636363636359
 20
-10.871697443184463
 11
-0.42613636363636359
 21
-12.571022727275375
  0
LINE
  8
0
 62
5
  6
CONTINUOUS
 10
0.42613636363636359
 20
-10.871697443184463
 11
-0.42613636363636359
 21
-10.871697443184463
  0
LINE
  8
0
 62
50
  6
CONTINUOUS
 10
-0.77769886363638296
 20
-12.606534090911738
 11
0.77769886363635066
 21
-12.606534090911738
  0
LINE
  8
0
 62
50
  6
CONTINUOUS
 10
0.67471590909090906
 20
-12.606534090911738
 11
0.67471590909090906
 21
-12.571022727275375
  0
LINE
  8
0
 62
50
  6
CONTINUOUS
 10
-0.67471590909090906
 20
-12.571022727275375
 11
-0.67471590909090906
 21
-12.606534090911738
  0
LINE
  8
0
 62
5
  6
CONTINUOUS
 10
0.3498934659090609
 20
-10.795454545457194
 11
0.3498934659090609
 21
-12.571022727275375
  0
LINE
  8
0
 62
5
  6
CONTINUOUS
 10
-0.34989346590912551
 20
-10.795454545457194
 11
-0.34989346590912551
 21
-12.571022727275375
  0
ENDBLK
  0
BLOCK
  8
0
 62
5
  6
DASHDOT
  2
TELL_5
 70
0
 10
-3.0886000827608353e-010
 20
-9.9431818183051934
  0
LINE
  8
0
 62
50
  6
CONTINUOUS
 10
-2.8409090909091552
 20
-2.8409090909090908
 11
2.840909090909026
 21
-2.8409090909090908
  0
LINE
  8
0
 62
50
  6
CONTINUOUS
 10
2.840909090909026
 20
-2.8409090909090908
 11
2.840909090909026
 21
-17.045454545454543
  0
LINE
  8
0
 62
50
  6
CONTINUOUS
 10
2.840909090909026
 20
-17.045454545454543
 11
-2.8409090909091552
 21
-17.045454545454543
  0
LINE
  8
0
 62
50
  6
CONTINUOUS
 10
-2.8409090909091552
 20
-17.045454545454543
 11
-2.8409090909091552
 21
-2.8409090909090908
  0
LINE
  8
0
 62
50
  6
CONTINUOUS
 10
0.49715909090902627
 20
-5.1846590909090899
 11
0.49715909090902627
 21
-4.0482954545454541
  0
LINE
  8
0
 62
50
  6
CONTINUOUS
 10
-0.49715909090915544
 20
-4.0482954545454541
 11
-0.49715909090915544
 21
-5.1846590909090899
  0
LINE
  8
0
 62
50
  6
CONTINUOUS
 10
1.7400568181783622
 20
-12.571022727275375
 11
-1.7400568181852738
 21
-12.571022727272727
  0
LINE
  8
0
 62
50
  6
CONTINUOUS
 10
-2.3082386363670921
 20
-12.002840909093557
 11
-2.3082386363637006
 21
-10.866477272727272
  0
LINE
  8
0
 62
50
  6
CONTINUOUS
 10
-2.3082386363637006
 20
-10.866477272727272
 11
-2.0241477272727915
 21
-10.866477272727272
  0
LINE
  8
0
 62
50
  6
CONTINUOUS
 10
-2.0241477272727915
 20
-10.866477272727272
 11
-2.024147727276183
 21
-12.002840909093557
  0
LINE
  8
0
 62
50
  6
CONTINUOUS
 10
-1.7400568181852738
 20
-12.286931818184465
 11
1.7400568181783622
 21
-12.286931818184465
  0
LINE
  8
0
 62
50
  6
CONTINUOUS
 10
2.0241477272692712
 20
-12.002840909093557
 11
2.0241477272726627
 21
-10.866477272727272
  0
LINE
  8
0
 62
50
  6
CONTINUOUS
 10
2.0241477272726627
 20
-10.866477272727272
 11
2.3082386363635714
 21
-10.866477272727272
  0
LINE
  8
0
 62
50
  6
CONTINUOUS
 10
2.3082386363635714
 20
-10.866477272727272
 11
2.3082386363601803
 21
-12.002840909093557
  0
LINE
  8
0
 62
50
  6
CONTINUOUS
 10
1.7755681818147258
 20
-8.6647727272753752
 11
1.775568181818117
 21
-11.221590909093557
  0
LINE
  8
0
 62
50
  6
CONTINUOUS
 10
1.2784090909056349
 20
-11.718750000002647
 11
-1.2784090909125465
 21
-11.718749999999998
  0
LINE
  8
0
 62
50
  6
CONTINUOUS
 10
-1.7755681818216376
 20
-11.221590909093557
 11
-1.7755681818216376
 21
-8.6647727272753752
  0
LINE
  8
0
 62
50
  6
CONTINUOUS
 10
-1.2784090909125465
 20
-8.1676136363662835
 11
1.2784090909056349
 21
-8.1676136363662835
  0
LINE
  8
0
 62
50
  6
CONTINUOUS
 10
-1.4914772727307284
 20
-8.6647727272753752
 11
-1.4914772727307284
 21
-11.221590909093557
  0
LINE
  8
0
 62
50
  6
CONTINUOUS
 10
-1.2784090909125465
 20
-11.434659090911738
 11
1.2784090909056349
 21
-11.434659090911738
  0
LINE
  8
0
 62
50
  6
CONTINUOUS
 10
1.4914772727238168
 20
-11.221590909093557
 11
1.4914772727272079
 21
-8.6647727272753752
  0
LINE
  8
0
 62
50
  6
CONTINUOUS
 10
1.2784090909056349
 20
-8.4517045454571935
 11
-1.2784090909125465
 21
-8.451704545454545
  0
ARC
  8
0
 62
50
  6
CONTINUOUS
 10
-1.2784090909091554
 20
-8.6647727272727266
 40
0.2130681818181818
 50
90
 51
180.00000000071216
  0
ARC
  8
0
 62
50
  6
CONTINUOUS
 10
1.2784090909090262
 20
-8.6647727272727266
 40
0.2130681818181818
 50
359.99999999928781
 51
90
  0
ARC
  8
0
 62
50
  6
CONTINUOUS
 10
-1.2784090909125143
 20
-11.221590909090908
 40
0.2130681818181818
 50
180.00000000071216
 51
270
  0
ARC
  8
0
 62
50
  6
CONTINUOUS
 10
1.2784090909090262
 20
-11.221590909093557
 40
0.2130681818181818
 50
270
 51
0
  0
ARC
  8
0
 62
50
  6
CONTINUOUS
 10
-1.2784090909091554
 20
-11.221590909090908
 40
0.49715909090909083
 50
180.00000000030522
 51
270
  0
ARC
  8
0
 62
50
  6
CONTINUOUS
 10
1.2784090909090262
 20
-11.221590909090908
 40
0.49715909090909083
 50
270
 51
359.99999999969481
  0
ARC
  8
0
 62
50
  6
CONTINUOUS
 10
-1.2784090909125143
 20
-8.6647727272727266
 40
0.49715909090909083
 50
90
 51
180.00000000030522
  0
ARC
  8
0
 62
50
  6
CONTINUOUS
 10
1.2784090909090262
 20
-8.6647727272753752
 40
0.49715909090909083
 50
0
 51
90
  0
ARC
  8
0
 62
50
  6
CONTINUOUS
 10
-6.4594794160009101e-014
 20
-5.1846590909090899
 40
0.49715909090909083
 50
180.00000000030522
 51
359.99999999969481
  0
ARC
  8
0
 62
50
  6
CONTINUOUS
 10
-6.4594794160009101e-014
 20
-4.0482954545454541
 40
0.49715909090908172
 50
359.99999999969481
 51
180.00000000030522
  0
LINE
  8
0
 62
5
  6
DASHDOT
 10
0
 20
-17.187499999999996
 11
0
 21
-2.6988636363636362
  0
LINE
  8
0
 62
50
  6
CONTINUOUS
 10
0.49715909090902627
 20
-14.701704545454543
 11
0.49715909090902627
 21
-15.83806818181818
  0
LINE
  8
0
 62
50
  6
CONTINUOUS
 10
-0.49715909090915544
 20
-15.83806818181818
 11
-0.49715909090915544
 21
-14.701704545454543
  0
ARC
  8
0
 62
50
  6
CONTINUOUS
 10
-6.4594794160009101e-014
 20
-14.701704545454543
 40
0.49715909090909083
 50
3.0519231586367823e-010
 51
179.99999999969478
  0
ARC
  8
0
 62
50
  6
CONTINUOUS
 10
-6.4594794160009101e-014
 20
-15.83806818181818
 40
0.49715909090908172
 50
179.99999999969478
 51
3.0519231586367823e-010
  0
ARC
  8
0
 62
50
  6
CONTINUOUS
 10
-1.7400568181818825
 20
-12.002840909090908
 40
0.28409090909090906
 50
180.00000000053413
 51
270
  0
ARC
  8
0
 62
50
  6
CONTINUOUS
 10
1.7400568181817535
 20
-12.002840909093557
 40
0.28409090909090906
 50
270
 51
0
  0
ARC
  8
0
 62
50
  6
CONTINUOUS
 10
-1.7400568181818825
 20
-12.002840909090908
 40
0.56818181818181812
 50
180.00000000026708
 51
270
  0
ARC
  8
0
 62
50
  6
CONTINUOUS
 10
1.7400568181817535
 20
-12.002840909090908
 40
0.56818181818181812
 50
270
 51
359.99999999973295
  0
LINE
  8
0
 62
5
  6
DASHDOT
 10
-0.63920454545461003
 20
-15.269886363636362
 11
0.63920454545457772
 21
-15.269886363636362
  0
LINE
  8
0
 62
5
  6
DASHDOT
 10
-0.63920454545461003
 20
-4.6164772727272725
 11
0.63920454545457772
 21
-4.6164772727272725
  0
INSERT
  8
0
 62
5
  6
DASHDOT
  2
TELL_6
 10
-3.0886000827608353e-010
 20
-12.571022727396102
 41
1.0
 42
1.0
 50
0.0
  0
ENDBLK
  0
BLOCK
  8
0
 62
140
  6
CONTINUOUS
  2
TELL_7
 70
0
 10
12.784090909090843
 20
0.88778409090909083
  0
LINE
  8
0
 62
50
  6
CONTINUOUS
 10
10.653409090909026
 20
0.71022727272727271
 11
11.008522727272661
 21
1.0653409090909089
  0
LINE
  8
0
 62
50
  6
CONTINUOUS
 10
11.008522727272661
 20
1.0653409090909089
 11
11.019827514733421
 21
1.0653409090909089
  0
LINE
  8
0
 62
50
  6
CONTINUOUS
 10
11.019827516009524
 20
1.0653409090909089
 11
11.020987543659576
 21
1.0637908319631153
  0
LINE
  8
0
 62
50
  6
CONTINUOUS
 10
11.020987543659542
 20
1.0637908302579742
 11
11.027812242807819
 21
1.0653409090909089
  0
LINE
  8
0
 62
50
  6
CONTINUOUS
 10
11.027812242807819
 20
1.0653409090909089
 11
11.051609630880417
 21
1.0653409090909089
  0
LINE
  8
0
 62
50
  6
CONTINUOUS
 10
11.051609634869372
 20
1.0653409090909089
 11
11.057756954877975
 21
1.0634806233052916
  0
LINE
  8
0
 62
50
  6
CONTINUOUS
 10
11.057756954877975
 20
1.0634806235609255
 11
11.065686309292065
 21
1.0653409090909089
  0
LINE
  8
0
 62
50
  6
CONTINUOUS
 10
11.065686316062051
 20
1.0653409090909089
 11
11.107100114795477
 21
1.0653409090909089
  0
LINE
  8
0
 62
50
  6
CONTINUOUS
 10
11.107100128875237
 20
1.0653409090909089
 11
11.116987189113848
 21
1.0644110557535345
  0
LINE
  8
0
 62
50
  6
CONTINUOUS
 10
11.116987189113848
 20
1.0644110559257765
 11
11.120759203404354
 21
1.0653409090909089
  0
LINE
  8
0
 62
50
  6
CONTINUOUS
 10
11.120759209894581
 20
1.0653409090909089
 11
11.191936174426621
 21
1.0653409090909089
  0
LINE
  8
0
 62
50
  6
CONTINUOUS
 10
11.191936179682861
 20
1.0653409090909089
 11
11.195708195098577
 21
1.0644110557392914
  0
LINE
  8
0
 62
50
  6
CONTINUOUS
 10
11.195708195098577
 20
1.0644110558205515
 11
11.211443360112611
 21
1.0653409090909089
  0
LINE
  8
0
 62
50
  6
CONTINUOUS
 10
11.211443383738189
 20
1.0653409090909089
 11
11.277353066667894
 21
1.0653409090909089
  0
LINE
  8
0
 62
50
  6
CONTINUOUS
 10
11.27735307583086
 20
1.0653409090909089
 11
11.289972572881849
 21
1.063480623377121
  0
LINE
  8
0
 62
50
  6
CONTINUOUS
 10
11.289972572881849
 20
1.0634806234311223
 11
11.307540602796383
 21
1.0653409090909089
  0
LINE
  8
0
 62
50
  6
CONTINUOUS
 10
11.307540616321241
 20
1.0653409090909089
 11
11.375549644547368
 21
1.0653409090909089
  0
LINE
  8
0
 62
50
  6
CONTINUOUS
 10
11.375549662055819
 20
1.0653409090909089
 11
11.395053512947809
 21
1.0637908318062792
  0
LINE
  8
0
 62
50
  6
CONTINUOUS
 10
11.395053512947809
 20
1.063790831822977
 11
11.405349043818381
 21
1.0653409090909089
  0
LINE
  8
0
 62
50
  6
CONTINUOUS
 10
11.405349053413614
 20
1.0653409090909089
 11
14.162832764768169
 21
1.0653409090909089
  0
LINE
  8
0
 62
50
  6
CONTINUOUS
 10
14.162832774363434
 20
1.0653409090909089
 11
14.173128305233877
 21
1.0637908318230092
  0
LINE
  8
0
 62
50
  6
CONTINUOUS
 10
14.173128305233877
 20
1.0637908318063114
 11
14.192632156125608
 21
1.0653409090909089
  0
LINE
  8
0
 62
50
  6
CONTINUOUS
 10
14.192632173634157
 20
1.0653409090909089
 11
14.260641201860285
 21
1.0653409090909089
  0
LINE
  8
0
 62
50
  6
CONTINUOUS
 10
14.260641215385336
 20
1.0653409090909089
 11
14.278209245299838
 21
1.0634806234311223
  0
LINE
  8
0
 62
50
  6
CONTINUOUS
 10
14.278209245299838
 20
1.063480623377121
 11
14.290828742350989
 21
1.0653409090909089
  0
LINE
  8
0
 62
50
  6
CONTINUOUS
 10
14.290828751513889
 20
1.0653409090909089
 11
14.356738434443917
 21
1.0653409090909089
  0
LINE
  8
0
 62
50
  6
CONTINUOUS
 10
14.356738458069398
 20
1.0653409090909089
 11
14.37247362308311
 21
1.0644110558205515
  0
LINE
  8
0
 62
50
  6
CONTINUOUS
 10
14.37247362308311
 20
1.0644110557393558
 11
14.376245638498728
 21
1.0653409090909089
  0
LINE
  8
0
 62
50
  6
CONTINUOUS
 10
14.376245643754968
 20
1.0653409090909089
 11
14.44742260828717
 21
1.0653409090909089
  0
LINE
  8
0
 62
50
  6
CONTINUOUS
 10
14.447422614777363
 20
1.0653409090909089
 11
14.451194629067839
 21
1.0644110559257443
  0
LINE
  8
0
 62
50
  6
CONTINUOUS
 10
14.451194629067839
 20
1.0644110557535345
 11
14.461081689306384
 21
1.0653409090909089
  0
LINE
  8
0
 62
50
  6
CONTINUOUS
 10
14.461081703386048
 20
1.0653409090909089
 11
14.502495502119634
 21
1.0653409090909089
  0
LINE
  8
0
 62
50
  6
CONTINUOUS
 10
14.502495508889686
 20
1.0653409090909089
 11
14.510424863303712
 21
1.0634806235608931
  0
LINE
  8
0
 62
50
  6
CONTINUOUS
 10
14.510424863303712
 20
1.0634806233052916
 11
14.516572183312251
 21
1.0653409090909089
  0
LINE
  8
0
 62
50
  6
CONTINUOUS
 10
14.516572187301238
 20
1.0653409090909089
 11
14.540369575373642
 21
1.0653409090909089
  0
LINE
  8
0
 62
50
  6
CONTINUOUS
 10
14.540369575373642
 20
1.0653409090909089
 11
14.547194274522143
 21
1.0637908302579095
  0
LINE
  8
0
 62
50
  6
CONTINUOUS
 10
14.547194274522143
 20
1.0637908319631475
 11
14.548354302172163
 21
1.0653409090909089
  0
LINE
  8
0
 62
50
  6
CONTINUOUS
 10
14.548354303448297
 20
1.0653409090909089
 11
14.559659090909024
 21
1.0653409090909089
  0
LINE
  8
0
 62
50
  6
CONTINUOUS
 10
14.559659090909024
 20
1.0653409090909089
 11
14.914772727272661
 21
0.71022727272727271
  0
LINE
  8
0
 62
50
  6
CONTINUOUS
 10
14.914772727272661
 20
0.71022727272727271
 11
10.653409090909026
 21
0.71022727272727271
  0
ENDBLK
  0
BLOCK
  8
0
 62
5
  6
DASHDOT
  2
TELL_8
 70
0
 10
15.411931817962227
 20
6.2499999998766231
  0
LINE
  8
0
 62
50
  6
CONTINUOUS
 10
15.447443181818116
 20
7.02769886363635
 11
15.92801769074709
 21
7.02769886363635
  0
ARC
  8
0
 62
50
  6
CONTINUOUS
 10
15.591264204545395
 20
6.8332741477272787
 40
0.38884943181818177
 50
317.88538956950413
 51
30
  0
ARC
  8
0
 62
50
  6
CONTINUOUS
 10
15.411931818181753
 20
6.2499999999999991
 40
0.56818181818181812
 50
325.41628176499029
 51
34.583718235009712
  0
ARC
  8
0
 62
50
  6
CONTINUOUS
 10
15.591264204545395
 20
5.6667258522727204
 40
0.38884943181818177
 50
330
 51
42.114610430495873
  0
LINE
  8
0
 62
50
  6
CONTINUOUS
 10
15.92801769074709
 20
5.4723011363636491
 11
15.447443181818116
 21
5.4723011363636491
  0
LINE
  8
0
 62
50
  6
CONTINUOUS
 10
15.879714602091545
 20
6.5725055745099512
 11
15.447443181818116
 21
6.5725055745069474
  0
LINE
  8
0
 62
50
  6
CONTINUOUS
 10
15.879714602091545
 20
5.927494425490047
 11
15.447443181818116
 21
5.9274944254930508
  0
LINE
  8
0
 62
50
  6
CONTINUOUS
 10
15.980113636363569
 20
6.8332741477272787
 11
15.980113636363569
 21
5.6667258522727204
  0
LINE
  8
0
 62
5
  6
CONTINUOUS
 10
15.411931818181753
 20
6.6761363636363633
 11
13.71260653409084
 21
6.6761363636363598
  0
LINE
  8
0
 62
5
  6
CONTINUOUS
 10
13.71260653409084
 20
6.6761363636363598
 11
13.636363636363571
 21
6.5998934659090898
  0
LINE
  8
0
 62
5
  6
CONTINUOUS
 10
13.636363636363571
 20
6.5998934659090898
 11
13.636363636363571
 21
5.9001065340909031
  0
LINE
  8
0
 62
5
  6
CONTINUOUS
 10
13.636363636363571
 20
5.9001065340909031
 11
13.71260653409084
 21
5.8238636363636331
  0
LINE
  8
0
 62
5
  6
CONTINUOUS
 10
13.71260653409084
 20
5.8238636363636331
 11
15.411931818181753
 21
5.8238636363636358
  0
LINE
  8
0
 62
50
  6
CONTINUOUS
 10
15.447443181818116
 20
5.4723011363636491
 11
15.447443181818116
 21
7.02769886363635
  0
LINE
  8
0
 62
50
  6
CONTINUOUS
 10
15.447443181818116
 20
6.9247159090909083
 11
15.411931818181753
 21
6.9247159090909083
  0
LINE
  8
0
 62
50
  6
CONTINUOUS
 10
15.411931818181753
 20
5.5752840909090899
 11
15.447443181818116
 21
5.5752840909090899
  0
LINE
  8
0
 62
5
  6
CONTINUOUS
 10
13.636363636363571
 20
6.5998934659090898
 11
15.411931818181753
 21
6.5998934659090924
  0
LINE
  8
0
 62
5
  6
CONTINUOUS
 10
13.636363636363571
 20
5.9001065340909031
 11
15.411931818181753
 21
5.9001065340909058
  0
LINE
  8
0
 62
5
  6
DASHDOT
 10
13.494318181818116
 20
6.2499999999999964
 11
16.122159090909026
 21
6.2499999999999991
  0
ENDBLK
  0
BLOCK
  8
249
 62
5
  6
DASHDOT
  2
TELL_9
 70
0
 10
12.784090909090876
 20
2.3437499999999352
  0
CIRCLE
  8
249
 62
50
  6
CONTINUOUS
 10
12.784090909090876
 20
2.3437499999999352
 40
0.34989346590909087
  0
ARC
  8
249
 62
5
  6
CONTINUOUS
 10
12.784090909090876
 20
2.3437499999999352
 40
0.42613636363636359
 50
175.00000000000003
 51
90
  0
LINE
  8
249
 62
5
  6
DASHDOT
 10
12.784090909090876
 20
2.9119318181817531
 11
12.784090909090876
 21
1.775568181818117
  0
LINE
  8
249
 62
5
  6
DASHDOT
 10
12.215909090909058
 20
2.3437499999999352
 11
13.352272727272693
 21
2.3437499999999352
  0
ENDBLK
  0
BLOCK
  8
0
 62
5
  6
DASHDOT
  2
TELL_10
 70
0
 10
12.784090909090876
 20
6.250000000000032
  0
CIRCLE
  8
0
 62
50
  6
CONTINUOUS
 10
12.784090909090876
 20
6.250000000000032
 40
0.34989346590909087
  0
ARC
  8
0
 62
5
  6
CONTINUOUS
 10
12.784090909090876
 20
6.250000000000032
 40
0.42613636363636359
 50
175.00000000000003
 51
90
  0
LINE
  8
0
 62
5
  6
DASHDOT
 10
12.784090909090876
 20
6.8181818181818494
 11
12.784090909090876
 21
5.6818181818182136
  0
LINE
  8
0
 62
5
  6
DASHDOT
 10
12.215909090909058
 20
6.250000000000032
 11
13.352272727272693
 21
6.250000000000032
  0
ENDBLK
  0
BLOCK
  8
0
 62
50
  6
CONTINUOUS
  2
3_50_CR
 70
0
 10
12.78409090887784
 20
-1.2337605684588067e-010
  0
INSERT
  8
0
 62
140
  6
CONTINUOUS
  2
TELL_7
 10
12.784090909090843
 20
0.88778409090909083
 41
1.0
 42
1.0
 50
0.0
  0
LINE
  8
0
 62
50
  6
CONTINUOUS
 10
10.653409090909026
 20
0.71022727272727271
 11
11.008522727272661
 21
1.0653409090909089
  0
LINE
  8
0
 62
50
  6
CONTINUOUS
 10
14.559659090909024
 20
1.0653409090909089
 11
14.914772727272661
 21
0.71022727272727271
  0
LINE
  8
0
 62
50
  6
CONTINUOUS
 10
11.008522727272661
 20
1.0653409090909089
 11
11.008522727272661
 21
7.8124999999999991
  0
LINE
  8
0
 62
50
  6
CONTINUOUS
 10
11.020987543659576
 20
1.0637908319631153
 11
11.019827516009524
 21
1.0653409090909089
  0
LINE
  8
0
 62
50
  6
CONTINUOUS
 10
14.559659090909024
 20
7.8124999999999991
 11
14.559659090909024
 21
7.670454545454545
  0
LINE
  8
0
 62
50
  6
CONTINUOUS
 10
14.548354302172163
 20
1.0653409090909089
 11
14.547194274522143
 21
1.0637908319631475
  0
LINE
  8
0
 62
50
  6
CONTINUOUS
 10
14.559659090909024
 20
4.8295454545454541
 11
14.559659090909024
 21
1.0653409090909089
  0
LINE
  8
0
 62
50
  6
CONTINUOUS
 10
11.008522727272661
 20
1.0653409090909089
 11
11.019827514733421
 21
1.0653409090909089
  0
LINE
  8
0
 62
50
  6
CONTINUOUS
 10
11.020987543659542
 20
1.0637908302579742
 11
11.027812242807819
 21
1.0653409090909089
  0
LINE
  8
0
 62
50
  6
CONTINUOUS
 10
14.548354303448297
 20
1.0653409090909089
 11
14.559659090909024
 21
1.0653409090909089
  0
LINE
  8
0
 62
50
  6
CONTINUOUS
 10
14.540369575373642
 20
1.0653409090909089
 11
14.547194274522143
 21
1.0637908302579095
  0
LINE
  8
0
 62
50
  6
CONTINUOUS
 10
11.057756954877975
 20
1.0634806233052916
 11
11.051609634869372
 21
1.0653409090909089
  0
LINE
  8
0
 62
50
  6
CONTINUOUS
 10
14.516572183312251
 20
1.0653409090909089
 11
14.510424863303712
 21
1.0634806233052916
  0
LINE
  8
0
 62
50
  6
CONTINUOUS
 10
11.065686309292065
 20
1.0653409090909089
 11
11.057756954877975
 21
1.0634806235609255
  0
LINE
  8
0
 62
50
  6
CONTINUOUS
 10
11.116987189113848
 20
1.0644110557535345
 11
11.107100128875237
 21
1.0653409090909089
  0
LINE
  8
0
 62
50
  6
CONTINUOUS
 10
14.461081689306384
 20
1.0653409090909089
 11
14.451194629067839
 21
1.0644110557535345
  0
LINE
  8
0
 62
50
  6
CONTINUOUS
 10
14.510424863303712
 20
1.0634806235608931
 11
14.502495508889686
 21
1.0653409090909089
  0
LINE
  8
0
 62
50
  6
CONTINUOUS
 10
14.461081703386048
 20
1.0653409090909089
 11
14.502495502119634
 21
1.0653409090909089
  0
LINE
  8
0
 62
50
  6
CONTINUOUS
 10
14.516572187301238
 20
1.0653409090909089
 11
14.540369575373642
 21
1.0653409090909089
  0
LINE
  8
0
 62
50
  6
CONTINUOUS
 10
11.027812242807819
 20
1.0653409090909089
 11
11.051609630880417
 21
1.0653409090909089
  0
LINE
  8
0
 62
50
  6
CONTINUOUS
 10
11.065686316062051
 20
1.0653409090909089
 11
11.107100114795477
 21
1.0653409090909089
  0
LINE
  8
0
 62
50
  6
CONTINUOUS
 10
11.008522727272661
 20
7.8124999999999991
 11
14.559659090909024
 21
7.8124999999999991
  0
LINE
  8
0
 62
50
  6
CONTINUOUS
 10
14.451194629067839
 20
1.0644110559257443
 11
14.447422614777363
 21
1.0653409090909089
  0
LINE
  8
0
 62
50
  6
CONTINUOUS
 10
14.376245638498728
 20
1.0653409090909089
 11
14.37247362308311
 21
1.0644110557393558
  0
LINE
  8
0
 62
50
  6
CONTINUOUS
 10
11.120759203404354
 20
1.0653409090909089
 11
11.116987189113848
 21
1.0644110559257765
  0
LINE
  8
0
 62
50
  6
CONTINUOUS
 10
11.195708195098577
 20
1.0644110557392914
 11
11.191936179682861
 21
1.0653409090909089
  0
LINE
  8
0
 62
50
  6
CONTINUOUS
 10
11.120759209894581
 20
1.0653409090909089
 11
11.191936174426621
 21
1.0653409090909089
  0
LINE
  8
0
 62
50
  6
CONTINUOUS
 10
14.376245643754968
 20
1.0653409090909089
 11
14.44742260828717
 21
1.0653409090909089
  0
LINE
  8
0
 62
50
  6
CONTINUOUS
 10
11.211443360112611
 20
1.0653409090909089
 11
11.195708195098577
 21
1.0644110558205515
  0
LINE
  8
0
 62
50
  6
CONTINUOUS
 10
11.289972572881849
 20
1.063480623377121
 11
11.27735307583086
 21
1.0653409090909089
  0
LINE
  8
0
 62
50
  6
CONTINUOUS
 10
14.290828742350989
 20
1.0653409090909089
 11
14.278209245299838
 21
1.063480623377121
  0
LINE
  8
0
 62
50
  6
CONTINUOUS
 10
14.37247362308311
 20
1.0644110558205515
 11
14.356738458069398
 21
1.0653409090909089
  0
LINE
  8
0
 62
50
  6
CONTINUOUS
 10
14.192632156125608
 20
1.0653409090909089
 11
14.173128305233877
 21
1.0637908318063114
  0
LINE
  8
0
 62
50
  6
CONTINUOUS
 10
14.278209245299838
 20
1.0634806234311223
 11
14.260641215385336
 21
1.0653409090909089
  0
LINE
  8
0
 62
50
  6
CONTINUOUS
 10
11.307540602796383
 20
1.0653409090909089
 11
11.289972572881849
 21
1.0634806234311223
  0
LINE
  8
0
 62
50
  6
CONTINUOUS
 10
11.395053512947809
 20
1.0637908318062792
 11
11.375549662055819
 21
1.0653409090909089
  0
LINE
  8
0
 62
50
  6
CONTINUOUS
 10
11.405349043818381
 20
1.0653409090909089
 11
11.395053512947809
 21
1.063790831822977
  0
LINE
  8
0
 62
50
  6
CONTINUOUS
 10
14.173128305233877
 20
1.0637908318230092
 11
14.162832774363434
 21
1.0653409090909089
  0
LINE
  8
0
 62
5
  6
CONTINUOUS
 10
11.505681817962227
 20
1.065340908967533
 11
11.505681817962227
 21
7.8124999998766231
  0
LINE
  8
0
 62
5
  6
CONTINUOUS
 10
14.062499999780409
 20
4.8295454544220782
 11
14.062499999780409
 21
1.065340908967533
  0
LINE
  8
0
 62
50
  6
CONTINUOUS
 10
15.411931818181753
 20
7.670454545454545
 11
15.411931818181753
 21
4.8295454545454541
  0
LINE
  8
0
 62
50
  6
CONTINUOUS
 10
14.290828751513889
 20
1.0653409090909089
 11
14.356738434443917
 21
1.0653409090909089
  0
LINE
  8
0
 62
50
  6
CONTINUOUS
 10
11.211443383738189
 20
1.0653409090909089
 11
11.277353066667894
 21
1.0653409090909089
  0
LINE
  8
0
 62
50
  6
CONTINUOUS
 10
14.192632173634157
 20
1.0653409090909089
 11
14.260641201860285
 21
1.0653409090909089
  0
LINE
  8
0
 62
50
  6
CONTINUOUS
 10
11.307540616321241
 20
1.0653409090909089
 11
11.375549644547368
 21
1.0653409090909089
  0
LINE
  8
0
 62
50
  6
CONTINUOUS
 10
11.405349053413614
 20
1.0653409090909089
 11
14.162832764768169
 21
1.0653409090909089
  0
LINE
  8
0
 62
50
  6
CONTINUOUS
 10
13.707386363636298
 20
7.670454545454545
 11
15.411931818181753
 21
7.670454545454545
  0
LINE
  8
0
 62
50
  6
CONTINUOUS
 10
13.707386363636298
 20
4.8295454545454541
 11
15.411931818181753
 21
4.8295454545454541
  0
LINE
  8
0
 62
50
  6
CONTINUOUS
 10
13.707386363636298
 20
4.8295454545454541
 11
13.707386363636298
 21
7.670454545454545
  0
LINE
  8
0
 62
50
  6
CONTINUOUS
 10
5.6818181818181168
 20
0
 11
5.6818181818181168
 21
0.71022727272727271
  0
LINE
  8
0
 62
50
  6
CONTINUOUS
 10
5.6818181818181168
 20
0.71022727272727271
 11
10.653409090909026
 21
0.71022727272727271
  0
LINE
  8
0
 62
50
  6
CONTINUOUS
 10
10.653409090909026
 20
0.71022727272727271
 11
14.914772727272661
 21
0.71022727272727271
  0
LINE
  8
0
 62
50
  6
CONTINUOUS
 10
14.914772727272661
 20
0.71022727272727271
 11
19.886363636363569
 21
0.71022727272727271
  0
LINE
  8
0
 62
50
  6
CONTINUOUS
 10
19.886363636363569
 20
0.71022727272727271
 11
19.886363636363569
 21
0
  0
LINE
  8
0
 62
50
  6
CONTINUOUS
 10
19.886363636363569
 20
0
 11
5.6818181818181168
 21
0
  0
INSERT
  8
0
 62
5
  6
DASHDOT
  2
TELL_8
 10
15.411931817962227
 20
6.2499999998766231
 41
1.0
 42
1.0
 50
0.0
  0
LINE
  8
0
 62
5
  6
DASHDOT
 10
7.4573863636362656
 20
-0.22372807381488127
 11
7.4573863636362656
 21
0.93395534654215395
  0
LINE
  8
0
 62
5
  6
DASHDOT
 10
18.110795454545421
 20
-0.22372807381488127
 11
18.110795454545421
 21
0.93395534654215395
  0
LINE
  8
0
 62
5
  6
CONTINUOUS
 10
14.843749999999934
 20
4.9715909090909083
 11
14.843749999999934
 21
7.5284090909090899
  0
INSERT
  8
249
 62
5
  6
DASHDOT
  2
TELL_9
 10
12.784090909090876
 20
2.3437499999999352
 41
1.0
 42
1.0
 50
0.0
  0
INSERT
  8
0
 62
5
  6
DASHDOT
  2
TELL_10
 10
12.784090909090876
 20
6.250000000000032
 41
1.0
 42
1.0
 50
0.0
  0
ENDBLK
  0
ENDSEC
  0
SECTION
  2
ENTITIES
  0
INSERT
  8
0
 62
5
  6
DASHDOT
  2
TELL_1
 10
-3.0886000827627839e-010
 20
-1.2337605684588067e-010
 41
1.0
 42
1.0
 50
0.0
  0
INSERT
  8
0
 62
5
  6
DASHDOT
  2
TELL_5
 10
-3.0886000827608353e-010
 20
-9.9431818183051934
 41
1.0
 42
1.0
 50
0.0
  0
INSERT
  8
0
 62
50
  6
CONTINUOUS
  2
3_50_CR
 10
12.78409090887784
 20
-1.2337605684588067e-010
 41
1.0
 42
1.0
 50
0.0
  0
ENDSEC
  0
EOF
