  0
SECTION
  2
HEADER
  9
$ACADVER
  1
AC1009
  9
$EXTMIN
 10
-3.1645569620485112
 20
-18.143459915561557
  9
$EXTMAX
 10
21.097046413730112
 20
6.8565400844384472
  9
$TEXTSTYLE
  7
STANDARD
  9
$DIMLFAC
 40
1
  9
$REGENMODE
 70
1
  9
$DRAGMODE
 70
2
  9
$DIMASO
 70
1
  9
$LTSCALE
 40
1.0000000000
  0
ENDSEC
  0
SECTION
  2
TABLES
  0
TABLE
  2
LTYPE
 70
2
  0
LTYPE
  2
CONTINUOUS
 70
64
  3
CONTINUOUS
 72
65
 73
0
 40
0.0000000000
  0
LTYPE
  2
DASHDOT
 70
64
  3
DASHDOT
 72
65
 73
4
 40
1.0000000000
 49
0.5000000000
 49
-0.2500000000
 49
0.0000000000
 49
-0.2500000000
  0
ENDTAB
  0
TABLE
  2
LAYER
 70
2
  0
LAYER
  2
0
 70
0
 62
2
  6
CONTINUOUS
  0
LAYER
  2
249
 70
0
 62
2
  6
CONTINUOUS
  0
ENDTAB
  0
TABLE
  2
STYLE
 70
0
  0
STYLE
  2
Standard
 70
0
 40
0
 41
1
 50
0
 71
0
 42
2.5
  3
txt
  4

  0
ENDTAB
  0
ENDSEC
  0
SECTION
  2
BLOCKS
  0
BLOCK
  8
0
 62
140
  6
CONTINUOUS
  2
TELL_2
 70
0
 10
0
 20
0.79113924051212781
  0
LINE
  8
0
 62
50
  6
CONTINUOUS
 10
-1.8459915611949649
 20
0.52742616034141854
 11
-1.3185654008535463
 21
1.0548523206828371
  0
LINE
  8
0
 62
50
  6
CONTINUOUS
 10
-1.3185654008535463
 20
1.0548523206828371
 11
1.3185654008535463
 21
1.0548523206828371
  0
LINE
  8
0
 62
50
  6
CONTINUOUS
 10
1.3185654008535463
 20
1.0548523206828371
 11
1.8459915611949649
 21
0.52742616034141854
  0
LINE
  8
0
 62
50
  6
CONTINUOUS
 10
1.8459915611949649
 20
0.52742616034141854
 11
-1.8459915611949649
 21
0.52742616034141854
  0
ENDBLK
  0
BLOCK
  8
249
 62
5
  6
DASHDOT
  2
TELL_3
 70
0
 10
0
 20
5.2742616034141854
  0
LINE
  8
249
 62
50
  6
CONTINUOUS
 10
0
 20
6.3095943646267845
 11
-0.89662447258041156
 21
5.7919279840204849
  0
LINE
  8
249
 62
50
  6
CONTINUOUS
 10
-0.89662447258041156
 20
5.7919279840204849
 11
-0.89662447258041156
 21
4.7565952228078858
  0
LINE
  8
249
 62
50
  6
CONTINUOUS
 10
-0.89662447258041156
 20
4.7565952228078858
 11
0
 21
4.2389288422015863
  0
LINE
  8
249
 62
50
  6
CONTINUOUS
 10
0
 20
4.2389288422015863
 11
0.89662447258041156
 21
4.7565952228078858
  0
LINE
  8
249
 62
50
  6
CONTINUOUS
 10
0.89662447258041156
 20
4.7565952228078858
 11
0.89662447258041156
 21
5.7919279840204849
  0
LINE
  8
249
 62
50
  6
CONTINUOUS
 10
0.89662447258041156
 20
5.7919279840204849
 11
0
 21
6.3095943646267845
  0
CIRCLE
  8
249
 62
50
  6
CONTINUOUS
 10
0
 20
5.2742616034141854
 40
0.89662447258041178
  0
LINE
  8
249
 62
5
  6
DASHDOT
 10
0
 20
4.0279583780650192
 11
0
 21
6.5205648287633515
  0
LINE
  8
249
 62
5
  6
DASHDOT
 10
-1.2463032253491784
 20
5.2742616034141854
 11
1.2463032253491784
 21
5.2742616034141854
  0
ENDBLK
  0
BLOCK
  8
249
 62
50
  6
CONTINUOUS
  2
TELL_1
 70
0
 10
-3.6684392045672194e-011
 20
-1.8324207599145837e-010
  0
INSERT
  8
0
 62
140
  6
CONTINUOUS
  2
TELL_2
 10
0
 20
0.79113924051212781
 41
1.0
 42
1.0
 50
0.0
  0
LINE
  8
0
 62
50
  6
CONTINUOUS
 10
-2.1624472573998279
 20
3.7974683544582137
 11
-2.1624472573998279
 21
6.7510548523701575
  0
LINE
  8
0
 62
50
  6
CONTINUOUS
 10
2.1624472573998159
 20
6.7510548523701575
 11
2.1624472573998159
 21
3.7974683544582137
  0
LINE
  8
0
 62
50
  6
CONTINUOUS
 10
-1.8459915611949649
 20
0.52742616034141854
 11
-1.3185654008535463
 21
1.0548523206828371
  0
LINE
  8
0
 62
50
  6
CONTINUOUS
 10
-1.3185654008535463
 20
1.0548523206828371
 11
-1.3185654008535463
 21
3.7974683544582137
  0
LINE
  8
0
 62
50
  6
CONTINUOUS
 10
-1.3185654008535463
 20
6.856540084438441
 11
1.3185654008535463
 21
6.856540084438441
  0
LINE
  8
0
 62
50
  6
CONTINUOUS
 10
1.3185654008535463
 20
6.856540084438441
 11
1.3185654008535463
 21
6.7510548523701575
  0
LINE
  8
0
 62
50
  6
CONTINUOUS
 10
-1.3185654008535463
 20
6.7510548523701575
 11
-1.3185654008535463
 21
6.856540084438441
  0
LINE
  8
0
 62
50
  6
CONTINUOUS
 10
1.3185654008535463
 20
3.7974683544582137
 11
1.3185654008535463
 21
1.0548523206828371
  0
LINE
  8
0
 62
50
  6
CONTINUOUS
 10
1.3185654008535463
 20
1.0548523206828371
 11
1.8459915611949649
 21
0.52742616034141854
  0
LINE
  8
0
 62
50
  6
CONTINUOUS
 10
-1.8459915611949649
 20
0.52742616034141854
 11
1.8459915611949649
 21
0.52742616034141854
  0
LINE
  8
0
 62
50
  6
CONTINUOUS
 10
-1.3185654008535463
 20
1.0548523206828371
 11
1.3185654008535463
 21
1.0548523206828371
  0
LINE
  8
0
 62
50
  6
CONTINUOUS
 10
-2.1624472573998279
 20
3.7974683544582137
 11
2.1624472573998159
 21
3.7974683544582137
  0
LINE
  8
0
 62
50
  6
CONTINUOUS
 10
-2.1624472573998279
 20
6.7510548523701575
 11
2.1624472573998159
 21
6.7510548523701575
  0
LINE
  8
0
 62
5
  6
CONTINUOUS
 10
-1.5295358650268103
 20
3.9029535863432554
 11
-1.5295358650268103
 21
6.6455696201186321
  0
LINE
  8
0
 62
5
  6
CONTINUOUS
 10
1.5295358649534294
 20
6.6455696201186321
 11
1.5295358649534294
 21
3.9029535863432554
  0
LINE
  8
0
 62
50
  6
CONTINUOUS
 10
3.1645569620485112
 20
0.52742616034141854
 11
3.1645569620485112
 21
0
  0
LINE
  8
0
 62
50
  6
CONTINUOUS
 10
-3.1645569620485112
 20
0
 11
-3.1645569620485112
 21
0.52742616034141854
  0
LINE
  8
0
 62
50
  6
CONTINUOUS
 10
-3.1645569620485112
 20
0.52742616034141854
 11
3.1645569620485112
 21
0.52742616034141854
  0
LINE
  8
0
 62
50
  6
CONTINUOUS
 10
-3.1645569620485112
 20
0
 11
3.1645569620485112
 21
0
  0
LINE
  8
0
 62
50
  6
CONTINUOUS
 10
-2.1097046413656741
 20
0
 11
-2.1097046413656741
 21
0.52742616034141854
  0
LINE
  8
0
 62
50
  6
CONTINUOUS
 10
2.1097046413656741
 20
0.52742616034141854
 11
2.1097046413656741
 21
0
  0
INSERT
  8
249
 62
5
  6
DASHDOT
  2
TELL_3
 10
0
 20
5.2742616034141854
 41
1.0
 42
1.0
 50
0.0
  0
LINE
  8
0
 62
5
  6
DASHDOT
 10
0
 20
-0.31645569620485114
 11
0
 21
1.3713080168876883
  0
ENDBLK
  0
BLOCK
  8
0
 62
5
  6
DASHDOT
  2
TELL_5
 70
0
 10
-3.6684392045627533e-011
 20
-13.291139240814717
  0
LINE
  8
0
 62
50
  6
CONTINUOUS
 10
1.0337552742691756
 20
-13.343881856637886
 11
1.0337552742691767
 21
-13.96028739235377
  0
ARC
  8
0
 62
50
  6
CONTINUOUS
 10
0.77531645570188801
 20
-13.512658227947133
 40
0.51687763713459023
 50
227.54026094004348
 51
300
  0
ARC
  8
0
 62
50
  6
CONTINUOUS
 10
-1.1992282460501184e-014
 20
-13.291139240603748
 40
0.73839662447798593
 50
234.72863805591317
 51
305.27136194408683
  0
ARC
  8
0
 62
50
  6
CONTINUOUS
 10
-0.77531645570188734
 20
-13.512658227947133
 40
0.51687763713459023
 50
240
 51
312.45973905995652
  0
LINE
  8
0
 62
50
  6
CONTINUOUS
 10
-1.0337552742691865
 20
-13.96028739235377
 11
-1.0337552742691876
 21
-13.343881856637893
  0
LINE
  8
0
 62
50
  6
CONTINUOUS
 10
0.42638685279848593
 20
-13.893985677767567
 11
0.42638685279848498
 21
-13.343881856637889
  0
LINE
  8
0
 62
50
  6
CONTINUOUS
 10
-0.42638685279848404
 20
-13.893985677767567
 11
-0.42638685279848498
 21
-13.343881856637889
  0
LINE
  8
0
 62
50
  6
CONTINUOUS
 10
0.77531645570188878
 20
-14.029535865081733
 11
-0.77531645570188656
 21
-14.029535865081733
  0
LINE
  8
0
 62
5
  6
CONTINUOUS
 10
0.52742616034140655
 20
-13.291139240603748
 11
0.52742616034140355
 21
-11.281645569702924
  0
LINE
  8
0
 62
5
  6
CONTINUOUS
 10
0.52742616034140355
 20
-11.281645569702924
 11
0.42721518987654106
 21
-11.181434599238074
  0
LINE
  8
0
 62
5
  6
CONTINUOUS
 10
0.42721518987654106
 20
-11.181434599238074
 11
-0.42721518987655943
 21
-11.181434599238074
  0
LINE
  8
0
 62
5
  6
CONTINUOUS
 10
-0.42721518987655943
 20
-11.181434599238074
 11
-0.52742616034143353
 21
-11.281645569702924
  0
LINE
  8
0
 62
5
  6
CONTINUOUS
 10
-0.52742616034143353
 20
-11.281645569702924
 11
-0.52742616034143053
 21
-13.291139240603748
  0
LINE
  8
0
 62
5
  6
CONTINUOUS
 10
0.52742616034140355
 20
-11.281645569702924
 11
-0.52742616034143353
 21
-11.281645569702924
  0
LINE
  8
0
 62
50
  6
CONTINUOUS
 10
-1.0337552742691876
 20
-13.343881856637893
 11
1.0337552742691756
 21
-13.343881856637886
  0
LINE
  8
0
 62
50
  6
CONTINUOUS
 10
0.89662447258039957
 20
-13.343881856637889
 11
0.89662447258039957
 21
-13.291139240603748
  0
LINE
  8
0
 62
50
  6
CONTINUOUS
 10
-0.89662447258042355
 20
-13.291139240603748
 11
-0.89662447258042355
 21
-13.343881856637889
  0
LINE
  8
0
 62
5
  6
CONTINUOUS
 10
0.42721518987654106
 20
-11.181434599238074
 11
0.42721518987654422
 21
-13.291139240603748
  0
LINE
  8
0
 62
5
  6
CONTINUOUS
 10
-0.42721518987655943
 20
-11.181434599238074
 11
-0.42721518987655621
 21
-13.291139240603748
  0
ENDBLK
  0
BLOCK
  8
0
 62
5
  6
DASHDOT
  2
TELL_6
 70
0
 10
-3.6684392045627533e-011
 20
-8.8607594935565057
  0
LINE
  8
0
 62
50
  6
CONTINUOUS
 10
1.0337552742691756
 20
-8.8080168777016876
 11
1.0337552742691745
 21
-8.1916113419858103
  0
ARC
  8
0
 62
50
  6
CONTINUOUS
 10
0.77531645570188734
 20
-8.6392405063924453
 40
0.51687763713459023
 50
60
 51
132.45973905995652
  0
ARC
  8
0
 62
50
  6
CONTINUOUS
 10
-1.1992282459906759e-014
 20
-8.8607594937358325
 40
0.73839662447798593
 50
54.728638055913166
 51
125.27136194408683
  0
ARC
  8
0
 62
50
  6
CONTINUOUS
 10
-0.77531645570188801
 20
-8.6392405063924453
 40
0.51687763713459023
 50
47.540260940043481
 51
120
  0
LINE
  8
0
 62
50
  6
CONTINUOUS
 10
-1.0337552742691887
 20
-8.1916113419858103
 11
-1.0337552742691876
 21
-8.8080168777016929
  0
LINE
  8
0
 62
50
  6
CONTINUOUS
 10
0.42638685279848404
 20
-8.2579130565720114
 11
0.42638685279848498
 21
-8.8080168777016894
  0
LINE
  8
0
 62
50
  6
CONTINUOUS
 10
-0.42638685279848593
 20
-8.2579130565720114
 11
-0.42638685279848498
 21
-8.8080168777016894
  0
LINE
  8
0
 62
50
  6
CONTINUOUS
 10
0.77531645570188656
 20
-8.1223628692578451
 11
-0.77531645570188878
 21
-8.1223628692578451
  0
LINE
  8
0
 62
5
  6
CONTINUOUS
 10
0.52742616034140655
 20
-8.8607594937358325
 11
0.52742616034140954
 21
-10.870253164636656
  0
LINE
  8
0
 62
5
  6
CONTINUOUS
 10
0.52742616034140954
 20
-10.870253164636656
 11
0.42721518987654744
 21
-10.970464135101507
  0
LINE
  8
0
 62
5
  6
CONTINUOUS
 10
0.42721518987654744
 20
-10.970464135101507
 11
-0.42721518987655305
 21
-10.970464135101507
  0
LINE
  8
0
 62
5
  6
CONTINUOUS
 10
-0.42721518987655305
 20
-10.970464135101507
 11
-0.52742616034142753
 21
-10.870253164636656
  0
LINE
  8
0
 62
5
  6
CONTINUOUS
 10
-0.52742616034142753
 20
-10.870253164636656
 11
-0.52742616034143053
 21
-8.8607594937358325
  0
LINE
  8
0
 62
5
  6
CONTINUOUS
 10
0.52742616034140954
 20
-10.870253164636656
 11
-0.52742616034142753
 21
-10.870253164636656
  0
LINE
  8
0
 62
50
  6
CONTINUOUS
 10
-1.0337552742691876
 20
-8.8080168777016929
 11
1.0337552742691756
 21
-8.8080168777016876
  0
LINE
  8
0
 62
50
  6
CONTINUOUS
 10
0.89662447258039957
 20
-8.8080168777016894
 11
0.89662447258039957
 21
-8.8607594937358325
  0
LINE
  8
0
 62
50
  6
CONTINUOUS
 10
-0.89662447258042355
 20
-8.8607594937358325
 11
-0.89662447258042355
 21
-8.8080168777016894
  0
LINE
  8
0
 62
5
  6
CONTINUOUS
 10
0.42721518987654744
 20
-10.970464135101507
 11
0.42721518987654422
 21
-8.8607594937358325
  0
LINE
  8
0
 62
5
  6
CONTINUOUS
 10
-0.42721518987655305
 20
-10.970464135101507
 11
-0.42721518987655621
 21
-8.8607594937358325
  0
ENDBLK
  0
BLOCK
  8
0
 62
50
  6
CONTINUOUS
  2
TELL_4
 70
0
 10
-3.6684392045627533e-011
 20
-11.07594936738076
  0
LINE
  8
0
 62
50
  6
CONTINUOUS
 10
-2.1097046413290017
 20
-4.2194092825481064
 11
2.1097046414023466
 21
-4.2194092825481064
  0
LINE
  8
0
 62
50
  6
CONTINUOUS
 10
2.1097046414023466
 20
-4.2194092825481064
 11
3.1645569620851837
 21
-4.8284285538496468
  0
LINE
  8
0
 62
50
  6
CONTINUOUS
 10
3.1645569620851837
 20
-4.8284285538496468
 11
3.1645569620851957
 21
-17.323470180123447
  0
LINE
  8
0
 62
50
  6
CONTINUOUS
 10
3.1645569620851957
 20
-17.323470180123447
 11
2.1097046414023586
 21
-17.932489451424988
  0
LINE
  8
0
 62
50
  6
CONTINUOUS
 10
2.1097046414023586
 20
-17.932489451424988
 11
-2.1097046413289897
 21
-17.932489451424988
  0
LINE
  8
0
 62
50
  6
CONTINUOUS
 10
-2.1097046413289897
 20
-17.932489451424988
 11
-3.1645569620118268
 21
-17.323470180123497
  0
LINE
  8
0
 62
50
  6
CONTINUOUS
 10
-3.1645569620118268
 20
-17.323470180123497
 11
-3.1645569620118388
 21
-4.8284285538495988
  0
LINE
  8
0
 62
50
  6
CONTINUOUS
 10
-3.1645569620118388
 20
-4.8284285538495988
 11
-2.1097046413290017
 21
-4.2194092825481064
  0
LINE
  8
0
 62
50
  6
CONTINUOUS
 10
-0.58016877633888797
 20
-14.504219409205769
 11
-0.58016877633887598
 21
-16.508438818503159
  0
LINE
  8
0
 62
50
  6
CONTINUOUS
 10
0.58016877641224485
 20
-16.508438818503159
 11
0.58016877641223286
 21
-14.504219409205769
  0
LINE
  8
0
 62
50
  6
CONTINUOUS
 10
-1.8459915611949769
 20
-12.658227848194045
 11
-1.8219028056603979
 21
-12.779330200209207
  0
LINE
  8
0
 62
50
  6
CONTINUOUS
 10
-1.8219028056603979
 20
-12.779330200209207
 11
-1.7533038337216997
 21
-12.881995816925643
  0
LINE
  8
0
 62
50
  6
CONTINUOUS
 10
-1.7533038337216997
 20
-12.881995816925643
 11
-1.650638217005288
 21
-12.950594788864294
  0
LINE
  8
0
 62
50
  6
CONTINUOUS
 10
-1.650638217005288
 20
-12.950594788864294
 11
-1.5295358649901258
 21
-12.974683544398896
  0
LINE
  8
0
 62
50
  6
CONTINUOUS
 10
1.8459915611949649
 20
-12.658227848194045
 11
1.8219028056603859
 21
-12.779330200209207
  0
LINE
  8
0
 62
50
  6
CONTINUOUS
 10
1.8219028056603859
 20
-12.779330200209207
 11
1.7533038337216877
 21
-12.881995816925595
  0
LINE
  8
0
 62
50
  6
CONTINUOUS
 10
1.7533038337216877
 20
-12.881995816925595
 11
1.650638217005276
 21
-12.950594788864294
  0
LINE
  8
0
 62
50
  6
CONTINUOUS
 10
1.650638217005276
 20
-12.950594788864294
 11
1.5295358649901138
 21
-12.974683544398896
  0
LINE
  8
0
 62
50
  6
CONTINUOUS
 10
-1.8459915611949769
 20
-12.341772151989193
 11
-1.8459915611949769
 21
-12.658227848194045
  0
LINE
  8
0
 62
50
  6
CONTINUOUS
 10
-1.5295358649901258
 20
-12.974683544398896
 11
1.5295358649901138
 21
-12.974683544398896
  0
LINE
  8
0
 62
50
  6
CONTINUOUS
 10
1.8459915611949649
 20
-12.658227848194045
 11
1.8459915611949649
 21
-12.341772151989193
  0
LINE
  8
0
 62
50
  6
CONTINUOUS
 10
1.8459915611949649
 20
-12.341772151989193
 11
2.1624472573998159
 21
-12.341772151989193
  0
LINE
  8
0
 62
50
  6
CONTINUOUS
 10
2.1624472573998159
 20
-12.341772151989193
 11
2.1624472573998159
 21
-12.658227848194045
  0
LINE
  8
0
 62
50
  6
CONTINUOUS
 10
1.5295358649901138
 20
-13.291139240603748
 11
-1.5295358649901258
 21
-13.291139240603748
  0
LINE
  8
0
 62
50
  6
CONTINUOUS
 10
-2.1624472573998279
 20
-12.658227848194045
 11
-2.1624472573998279
 21
-12.341772151989193
  0
LINE
  8
0
 62
50
  6
CONTINUOUS
 10
-2.1624472573998279
 20
-12.341772151989193
 11
-1.8459915611949769
 21
-12.341772151989193
  0
LINE
  8
0
 62
50
  6
CONTINUOUS
 10
1.3185654008535344
 20
-11.919831223716059
 11
1.3185654008535344
 21
-12.763713080262329
  0
LINE
  8
0
 62
50
  6
CONTINUOUS
 10
1.3185654008535344
 20
-12.763713080262329
 11
-1.3185654008535583
 21
-12.763713080262329
  0
LINE
  8
0
 62
50
  6
CONTINUOUS
 10
-1.3185654008535583
 20
-12.763713080262329
 11
-1.3185654008535583
 21
-11.919831223716059
  0
LINE
  8
0
 62
50
  6
CONTINUOUS
 10
-1.3185654008535583
 20
-11.919831223716059
 11
1.3185654008535344
 21
-11.919831223716059
  0
ARC
  8
0
 62
50
  6
CONTINUOUS
 10
3.6672399763212025e-011
 20
-5.6434599154699363
 40
0.58016877637556075
 50
0
 51
180
  0
ARC
  8
0
 62
50
  6
CONTINUOUS
 10
3.6684392045672194e-011
 20
-16.508438818503159
 40
0.58016877637556163
 50
180
 51
0
  0
ARC
  8
0
 62
50
  6
CONTINUOUS
 10
3.6672399763212025e-011
 20
-14.504219409205769
 40
0.58016877637556052
 50
0
 51
27.03569176863822
  0
ARC
  8
0
 62
50
  6
CONTINUOUS
 10
3.6672399763212025e-011
 20
-14.504219409205769
 40
0.58016877637556052
 50
152.96430823131871
 51
180
  0
ARC
  8
0
 62
50
  6
CONTINUOUS
 10
-1.5295358649901258
 20
-12.658227848194045
 40
0.63291139240970407
 50
180
 51
270.00000000000045
  0
ARC
  8
0
 62
50
  6
CONTINUOUS
 10
1.5295358649901138
 20
-12.658227848194045
 40
0.63291139240969729
 50
269.99999999999932
 51
0
  0
INSERT
  8
0
 62
5
  6
DASHDOT
  2
TELL_5
 10
-3.6684392045627533e-011
 20
-13.291139240814717
 41
1.0
 42
1.0
 50
0.0
  0
LINE
  8
0
 62
5
  6
DASHDOT
 10
3.6672399763212025e-011
 20
-18.143459915561557
 11
3.6672399763212025e-011
 21
-4.0084388184115385
  0
LINE
  8
0
 62
5
  6
DASHDOT
 10
-0.79113924047545547
 20
-15.506329113854463
 11
0.79113924054880025
 21
-15.506329113854463
  0
LINE
  8
0
 62
50
  6
CONTINUOUS
 10
-0.58016877633888797
 20
-7.6476793251338107
 11
-0.58016877633887598
 21
-5.6434599158364209
  0
LINE
  8
0
 62
50
  6
CONTINUOUS
 10
0.58016877641224485
 20
-5.6434599158364209
 11
0.58016877641223286
 21
-7.6476793251338107
  0
LINE
  8
0
 62
50
  6
CONTINUOUS
 10
-1.8459915611949769
 20
-9.4936708861455337
 11
-1.8219028056603979
 21
-9.3725685341303713
  0
LINE
  8
0
 62
50
  6
CONTINUOUS
 10
-1.8219028056603979
 20
-9.3725685341303713
 11
-1.7533038337216997
 21
-9.2699029174139351
  0
LINE
  8
0
 62
50
  6
CONTINUOUS
 10
-1.7533038337216997
 20
-9.2699029174139351
 11
-1.650638217005288
 21
-9.201303945475285
  0
LINE
  8
0
 62
50
  6
CONTINUOUS
 10
-1.650638217005288
 20
-9.201303945475285
 11
-1.5295358649901258
 21
-9.1772151899406822
  0
LINE
  8
0
 62
50
  6
CONTINUOUS
 10
1.8459915611949649
 20
-9.4936708861455337
 11
1.8219028056603859
 21
-9.3725685341303713
  0
LINE
  8
0
 62
50
  6
CONTINUOUS
 10
1.8219028056603859
 20
-9.3725685341303713
 11
1.7533038337216877
 21
-9.2699029174139831
  0
LINE
  8
0
 62
50
  6
CONTINUOUS
 10
1.7533038337216877
 20
-9.2699029174139831
 11
1.650638217005276
 21
-9.201303945475285
  0
LINE
  8
0
 62
50
  6
CONTINUOUS
 10
1.650638217005276
 20
-9.201303945475285
 11
1.5295358649901138
 21
-9.1772151899406822
  0
LINE
  8
0
 62
50
  6
CONTINUOUS
 10
-1.8459915611949769
 20
-9.8101265823503851
 11
-1.8459915611949769
 21
-9.4936708861455337
  0
LINE
  8
0
 62
50
  6
CONTINUOUS
 10
-1.5295358649901258
 20
-9.1772151899406822
 11
1.5295358649901138
 21
-9.1772151899406822
  0
LINE
  8
0
 62
50
  6
CONTINUOUS
 10
1.8459915611949649
 20
-9.4936708861455337
 11
1.8459915611949649
 21
-9.8101265823503851
  0
LINE
  8
0
 62
50
  6
CONTINUOUS
 10
1.8459915611949649
 20
-9.8101265823503851
 11
2.1624472573998159
 21
-9.8101265823503851
  0
LINE
  8
0
 62
50
  6
CONTINUOUS
 10
2.1624472573998159
 20
-9.8101265823503851
 11
2.1624472573998159
 21
-9.4936708861455337
  0
LINE
  8
0
 62
50
  6
CONTINUOUS
 10
1.5295358649901138
 20
-8.8607594937358325
 11
-1.5295358649901258
 21
-8.8607594937358325
  0
LINE
  8
0
 62
50
  6
CONTINUOUS
 10
-2.1624472573998279
 20
-9.4936708861455337
 11
-2.1624472573998279
 21
-9.8101265823503851
  0
LINE
  8
0
 62
50
  6
CONTINUOUS
 10
-2.1624472573998279
 20
-9.8101265823503851
 11
-1.8459915611949769
 21
-9.8101265823503851
  0
LINE
  8
0
 62
50
  6
CONTINUOUS
 10
1.3185654008535344
 20
-10.232067510623519
 11
1.3185654008535344
 21
-9.388185654077251
  0
LINE
  8
0
 62
50
  6
CONTINUOUS
 10
1.3185654008535344
 20
-9.388185654077251
 11
-1.3185654008535583
 21
-9.388185654077251
  0
LINE
  8
0
 62
50
  6
CONTINUOUS
 10
-1.3185654008535583
 20
-9.388185654077251
 11
-1.3185654008535583
 21
-10.232067510623519
  0
LINE
  8
0
 62
50
  6
CONTINUOUS
 10
-1.3185654008535583
 20
-10.232067510623519
 11
1.3185654008535344
 21
-10.232067510623519
  0
ARC
  8
0
 62
50
  6
CONTINUOUS
 10
3.6672399763212025e-011
 20
-7.6476793251338107
 40
0.58016877637556052
 50
332.96430823136177
 51
0
  0
ARC
  8
0
 62
50
  6
CONTINUOUS
 10
3.6672399763212025e-011
 20
-7.6476793251338107
 40
0.58016877637556052
 50
180
 51
207.03569176868129
  0
ARC
  8
0
 62
50
  6
CONTINUOUS
 10
-1.5295358649901258
 20
-9.4936708861455337
 40
0.63291139240970407
 50
89.999999999999545
 51
180
  0
ARC
  8
0
 62
50
  6
CONTINUOUS
 10
1.5295358649901138
 20
-9.4936708861455337
 40
0.63291139240969729
 50
0
 51
90.000000000000682
  0
INSERT
  8
0
 62
5
  6
DASHDOT
  2
TELL_6
 10
-3.6684392045627533e-011
 20
-8.8607594935565057
 41
1.0
 42
1.0
 50
0.0
  0
LINE
  8
0
 62
5
  6
DASHDOT
 10
-0.79113924047545547
 20
-6.6455696204851158
 11
0.79113924054880025
 21
-6.6455696204851158
  0
ENDBLK
  0
BLOCK
  8
0
 62
140
  6
CONTINUOUS
  2
TELL_7
 70
0
 10
15.770042194245098
 20
0.79113924051213269
  0
LINE
  8
0
 62
50
  6
CONTINUOUS
 10
16.455696202688944
 20
0.52742616034142531
 11
15.928270042347524
 21
1.0548523206828424
  0
LINE
  8
0
 62
50
  6
CONTINUOUS
 10
15.928270042347524
 20
1.0548523206828424
 11
15.084388185801256
 21
1.0548523206828393
  0
LINE
  8
0
 62
50
  6
CONTINUOUS
 10
15.084388185801256
 20
1.0548523206828393
 11
15.084388185801256
 21
0.5274261603414212
  0
LINE
  8
0
 62
50
  6
CONTINUOUS
 10
15.084388185801256
 20
0.5274261603414212
 11
16.45569620268892
 21
0.52742616034142531
  0
ENDBLK
  0
BLOCK
  8
0
 62
5
  6
DASHDOT
  2
TELL_8
 70
0
 10
16.455696202757736
 20
5.274261603234863
  0
LINE
  8
0
 62
50
  6
CONTINUOUS
 10
16.508438818723061
 20
4.2405063291449938
 11
17.124844354438942
 21
4.2405063291449965
  0
ARC
  8
0
 62
50
  6
CONTINUOUS
 10
16.677215190032307
 20
4.498945147712317
 40
0.51687763713459023
 50
330
 51
42.459739059956519
  0
ARC
  8
0
 62
50
  6
CONTINUOUS
 10
16.455696202688912
 20
5.2742616034141898
 40
0.73839662447798593
 50
324.72863805591317
 51
35.271361944086834
  0
ARC
  8
0
 62
50
  6
CONTINUOUS
 10
16.677215190032346
 20
6.0495780591160688
 40
0.51687763713459023
 50
317.54026094004348
 51
30
  0
LINE
  8
0
 62
50
  6
CONTINUOUS
 10
17.124844354438935
 20
6.3080168776833956
 11
16.508438818723054
 21
6.3080168776833929
  0
LINE
  8
0
 62
50
  6
CONTINUOUS
 10
17.058542639852739
 20
4.8478747506156994
 11
16.508438818723061
 21
4.8478747506156958
  0
LINE
  8
0
 62
50
  6
CONTINUOUS
 10
17.058542639852732
 20
5.7006484562126927
 11
16.508438818723054
 21
5.70064845621269
  0
LINE
  8
0
 62
50
  6
CONTINUOUS
 10
17.194092827166905
 20
4.4989451477123206
 11
17.194092827166898
 21
6.0495780591160715
  0
LINE
  8
0
 62
5
  6
CONTINUOUS
 10
16.45569620268892
 20
4.7468354430727748
 11
14.446202531788144
 21
4.7468354430727651
  0
LINE
  8
0
 62
5
  6
CONTINUOUS
 10
14.446202531788144
 20
4.7468354430727651
 11
14.345991561323245
 21
4.8470464135376155
  0
LINE
  8
0
 62
5
  6
CONTINUOUS
 10
14.345991561323245
 20
4.8470464135376155
 11
14.345991561323245
 21
5.7014767932907517
  0
LINE
  8
0
 62
5
  6
CONTINUOUS
 10
14.345991561323245
 20
5.7014767932907517
 11
14.446202531788144
 21
5.8016877637556021
  0
LINE
  8
0
 62
5
  6
CONTINUOUS
 10
14.446202531788144
 20
5.8016877637556021
 11
16.455696202688912
 21
5.8016877637556119
  0
LINE
  8
0
 62
5
  6
CONTINUOUS
 10
14.446202531788144
 20
4.7468354430727651
 11
14.446202531788144
 21
5.8016877637556021
  0
LINE
  8
0
 62
50
  6
CONTINUOUS
 10
16.508438818723054
 20
6.3080168776833929
 11
16.508438818723061
 21
4.2405063291449938
  0
LINE
  8
0
 62
50
  6
CONTINUOUS
 10
16.508438818723061
 20
4.3776371308337811
 11
16.45569620268892
 21
4.3776371308337811
  0
LINE
  8
0
 62
50
  6
CONTINUOUS
 10
16.455696202688912
 20
6.1708860759946047
 11
16.508438818723054
 21
6.1708860759946047
  0
LINE
  8
0
 62
5
  6
CONTINUOUS
 10
14.345991561323245
 20
4.8470464135376155
 11
16.45569620268892
 21
4.8470464135376252
  0
LINE
  8
0
 62
5
  6
CONTINUOUS
 10
14.345991561323245
 20
5.7014767932907517
 11
16.455696202688912
 21
5.7014767932907615
  0
ENDBLK
  0
BLOCK
  8
0
 62
140
  6
CONTINUOUS
  2
TELL_9
 70
0
 10
12.710970464264872
 20
0.79113924051212292
  0
LINE
  8
0
 62
50
  6
CONTINUOUS
 10
12.025316455821027
 20
0.52742616034140954
 11
12.552742616162446
 21
1.0548523206828311
  0
LINE
  8
0
 62
50
  6
CONTINUOUS
 10
12.552742616162446
 20
1.0548523206828311
 11
13.39662447270871
 21
1.0548523206828371
  0
LINE
  8
0
 62
50
  6
CONTINUOUS
 10
13.39662447270871
 20
1.0548523206828371
 11
13.396624472708716
 21
0.5274261603414182
  0
LINE
  8
0
 62
50
  6
CONTINUOUS
 10
13.396624472708716
 20
0.5274261603414182
 11
12.025316455821052
 21
0.52742616034140954
  0
ENDBLK
  0
BLOCK
  8
0
 62
5
  6
DASHDOT
  2
TELL_10
 70
0
 10
12.025316455784335
 20
5.2742616032348577
  0
LINE
  8
0
 62
50
  6
CONTINUOUS
 10
11.972573839786911
 20
4.2405063291449796
 11
11.35616830407103
 21
4.2405063291449769
  0
ARC
  8
0
 62
50
  6
CONTINUOUS
 10
11.803797468477667
 20
4.4989451477123037
 40
0.51687763713459023
 50
137.54026094004348
 51
210
  0
ARC
  8
0
 62
50
  6
CONTINUOUS
 10
12.025316455821047
 20
5.2742616034141792
 40
0.73839662447798593
 50
144.72863805591317
 51
215.27136194408683
  0
ARC
  8
0
 62
50
  6
CONTINUOUS
 10
11.803797468477605
 20
6.0495780591160555
 40
0.51687763713459023
 50
150
 51
222.45973905995652
  0
LINE
  8
0
 62
50
  6
CONTINUOUS
 10
11.356168304071018
 20
6.308016877683376
 11
11.972573839786898
 21
6.3080168776833787
  0
LINE
  8
0
 62
50
  6
CONTINUOUS
 10
11.422470018657231
 20
4.8478747506156799
 11
11.972573839786909
 21
4.8478747506156825
  0
LINE
  8
0
 62
50
  6
CONTINUOUS
 10
11.422470018657224
 20
5.7006484562126731
 11
11.972573839786902
 21
5.7006484562126767
  0
LINE
  8
0
 62
50
  6
CONTINUOUS
 10
11.286919831343067
 20
4.498945147712301
 11
11.286919831343054
 21
6.049578059116052
  0
LINE
  8
0
 62
5
  6
CONTINUOUS
 10
12.025316455821052
 20
4.7468354430727606
 11
14.034810126721828
 21
4.7468354430727704
  0
LINE
  8
0
 62
5
  6
CONTINUOUS
 10
14.034810126721828
 20
4.7468354430727704
 11
14.135021097186726
 21
4.8470464135376208
  0
LINE
  8
0
 62
5
  6
CONTINUOUS
 10
14.135021097186726
 20
4.8470464135376208
 11
14.135021097186726
 21
5.7014767932907571
  0
LINE
  8
0
 62
5
  6
CONTINUOUS
 10
14.135021097186726
 20
5.7014767932907571
 11
14.034810126721828
 21
5.8016877637556075
  0
LINE
  8
0
 62
5
  6
CONTINUOUS
 10
14.034810126721828
 20
5.8016877637556075
 11
12.025316455821043
 21
5.8016877637555977
  0
LINE
  8
0
 62
5
  6
CONTINUOUS
 10
14.034810126721828
 20
4.7468354430727704
 11
14.034810126721828
 21
5.8016877637556075
  0
LINE
  8
0
 62
50
  6
CONTINUOUS
 10
11.972573839786898
 20
6.3080168776833787
 11
11.972573839786911
 21
4.2405063291449796
  0
LINE
  8
0
 62
50
  6
CONTINUOUS
 10
11.972573839786911
 20
4.3776371308337678
 11
12.025316455821052
 21
4.3776371308337678
  0
LINE
  8
0
 62
50
  6
CONTINUOUS
 10
12.02531645582104
 20
6.1708860759945914
 11
11.972573839786898
 21
6.1708860759945914
  0
LINE
  8
0
 62
5
  6
CONTINUOUS
 10
14.135021097186726
 20
4.8470464135376208
 11
12.025316455821052
 21
4.847046413537611
  0
LINE
  8
0
 62
5
  6
CONTINUOUS
 10
14.135021097186726
 20
5.7014767932907571
 11
12.025316455821043
 21
5.7014767932907473
  0
ENDBLK
  0
BLOCK
  8
0
 62
50
  6
CONTINUOUS
  2
3_50_CKDB
 70
0
 10
14.240506329218301
 20
-1.8324207599184942e-010
  0
INSERT
  8
0
 62
140
  6
CONTINUOUS
  2
TELL_7
 10
15.770042194245098
 20
0.79113924051213269
 41
1.0
 42
1.0
 50
0.0
  0
LINE
  8
0
 62
50
  6
CONTINUOUS
 10
16.455696202688944
 20
0.52742616034142531
 11
15.928270042347524
 21
1.0548523206828424
  0
LINE
  8
0
 62
50
  6
CONTINUOUS
 10
15.928270042347501
 20
6.8565400844384472
 11
15.084388185801231
 21
6.856540084438441
  0
LINE
  8
0
 62
50
  6
CONTINUOUS
 10
15.084388185801256
 20
0.5274261603414212
 11
15.084388185801231
 21
6.856540084438441
  0
LINE
  8
0
 62
50
  6
CONTINUOUS
 10
15.928270042347524
 20
1.0548523206828424
 11
15.928270042347513
 21
3.7974683544582195
  0
LINE
  8
0
 62
50
  6
CONTINUOUS
 10
15.928270042347501
 20
6.7510548523701637
 11
15.928270042347501
 21
6.8565400844384472
  0
LINE
  8
0
 62
50
  6
CONTINUOUS
 10
16.45569620268893
 20
3.7974683544582195
 11
16.45569620268892
 21
6.7510548523701637
  0
LINE
  8
0
 62
50
  6
CONTINUOUS
 10
15.928270042347524
 20
1.0548523206828424
 11
15.084388185801256
 21
1.0548523206828393
  0
LINE
  8
0
 62
50
  6
CONTINUOUS
 10
16.45569620268892
 20
6.7510548523701637
 11
15.506329114074365
 21
6.7510548523701637
  0
LINE
  8
0
 62
50
  6
CONTINUOUS
 10
15.506329114074365
 20
6.7510548523701637
 11
15.506329114074378
 21
3.7974683544582164
  0
LINE
  8
0
 62
50
  6
CONTINUOUS
 10
16.45569620268893
 20
3.7974683544582195
 11
15.506329114074378
 21
3.7974683544582164
  0
LINE
  8
0
 62
50
  6
CONTINUOUS
 10
7.3839662448532284
 20
0.52742616052463964
 11
7.3839662448532284
 21
1.8322107540307901e-010
  0
LINE
  8
0
 62
50
  6
CONTINUOUS
 10
21.097046413730112
 20
1.8326307657983817e-010
 11
21.097046413730112
 21
0.52742616052468161
  0
LINE
  8
0
 62
50
  6
CONTINUOUS
 10
21.097046413730112
 20
1.8326307657983817e-010
 11
7.3839662448532284
 21
1.8322107540307901e-010
  0
LINE
  8
0
 62
50
  6
CONTINUOUS
 10
20.488027142428617
 20
1.8326121124209137e-010
 11
20.488027142428617
 21
0.52742616052467972
  0
LINE
  8
0
 62
50
  6
CONTINUOUS
 10
7.3839662448532284
 20
0.52742616034139755
 11
21.097046413730112
 21
0.52742616034143952
  0
LINE
  8
0
 62
50
  6
CONTINUOUS
 10
7.9929855161547207
 20
0.52742616052464153
 11
7.9929855161547447
 21
1.8322294074082573e-010
  0
INSERT
  8
0
 62
5
  6
DASHDOT
  2
TELL_8
 10
16.455696202757736
 20
5.274261603234863
 41
1.0
 42
1.0
 50
0.0
  0
LINE
  8
0
 62
5
  6
DASHDOT
 10
9.810126582423754
 20
-0.31645569602162255
 11
9.810126582423754
 21
0.84388185691274031
  0
LINE
  8
0
 62
5
  6
DASHDOT
 10
18.670886076159608
 20
-0.31645569602159557
 11
18.670886076159608
 21
0.84388185691276729
  0
INSERT
  8
0
 62
140
  6
CONTINUOUS
  2
TELL_9
 10
12.710970464264872
 20
0.79113924051212292
 41
1.0
 42
1.0
 50
0.0
  0
LINE
  8
0
 62
50
  6
CONTINUOUS
 10
12.025316455821027
 20
0.52742616034141176
 11
12.552742616162446
 21
1.0548523206828317
  0
LINE
  8
0
 62
50
  6
CONTINUOUS
 10
12.552742616162423
 20
6.8565400844384348
 11
13.396624472708691
 21
6.856540084438441
  0
LINE
  8
0
 62
50
  6
CONTINUOUS
 10
13.396624472708716
 20
0.52742616034141587
 11
13.396624472708691
 21
6.856540084438441
  0
LINE
  8
0
 62
50
  6
CONTINUOUS
 10
12.552742616162446
 20
1.0548523206828317
 11
12.552742616162433
 21
3.7974683544582075
  0
LINE
  8
0
 62
50
  6
CONTINUOUS
 10
12.552742616162423
 20
6.7510548523701512
 11
12.552742616162423
 21
6.8565400844384348
  0
LINE
  8
0
 62
50
  6
CONTINUOUS
 10
12.025316455821015
 20
3.7974683544582075
 11
12.025316455821004
 21
6.7510548523701512
  0
LINE
  8
0
 62
50
  6
CONTINUOUS
 10
12.552742616162446
 20
1.0548523206828317
 11
13.39662447270871
 21
1.0548523206828349
  0
LINE
  8
0
 62
50
  6
CONTINUOUS
 10
12.025316455821004
 20
6.7510548523701512
 11
12.974683544435557
 21
6.7510548523701512
  0
LINE
  8
0
 62
50
  6
CONTINUOUS
 10
12.974683544435557
 20
6.7510548523701512
 11
12.974683544435569
 21
3.7974683544582106
  0
LINE
  8
0
 62
50
  6
CONTINUOUS
 10
12.025316455821015
 20
3.7974683544582075
 11
12.974683544435569
 21
3.7974683544582106
  0
INSERT
  8
0
 62
5
  6
DASHDOT
  2
TELL_10
 10
12.025316455784335
 20
5.2742616032348577
 41
1.0
 42
1.0
 50
0.0
  0
LINE
  8
0
 62
5
  6
DASHDOT
 10
11.075949367206482
 20
5.2742616034141765
 11
17.405063291303456
 21
5.2742616034141943
  0
LINE
  8
0
 62
5
  6
CONTINUOUS
 10
12.658227848230714
 20
3.9029535865264915
 11
12.658227848230711
 21
6.6455696203018677
  0
LINE
  8
0
 62
5
  6
CONTINUOUS
 10
15.822784810279234
 20
3.9029535865265035
 11
15.822784810279229
 21
6.6455696203018801
  0
ENDBLK
  0
ENDSEC
  0
SECTION
  2
ENTITIES
  0
INSERT
  8
249
 62
50
  6
CONTINUOUS
  2
TELL_1
 10
-3.6684392045672194e-011
 20
-1.8324207599145837e-010
 41
1.0
 42
1.0
 50
0.0
  0
INSERT
  8
0
 62
50
  6
CONTINUOUS
  2
TELL_4
 10
-3.6684392045627533e-011
 20
-11.07594936738076
 41
1.0
 42
1.0
 50
0.0
  0
INSERT
  8
0
 62
50
  6
CONTINUOUS
  2
3_50_CKDB
 10
14.240506329218301
 20
-1.8324207599184942e-010
 41
1.0
 42
1.0
 50
0.0
  0
ENDSEC
  0
EOF
