  0
SECTION
  2
HEADER
  9
$ACADVER
  1
AC1009
  9
$EXTMIN
 10
-3.1645569620021328
 20
-18.143459915478825
  9
$EXTMAX
 10
21.097046413347474
 20
6.8565400845211704
  9
$TEXTSTYLE
  7
STANDARD
  9
$DIMLFAC
 40
1
  9
$REGENMODE
 70
1
  9
$DRAGMODE
 70
2
  9
$DIMASO
 70
1
  9
$LTSCALE
 40
1.0000000000
  0
ENDSEC
  0
SECTION
  2
TABLES
  0
TABLE
  2
LTYPE
 70
2
  0
LTYPE
  2
CONTINUOUS
 70
64
  3
CONTINUOUS
 72
65
 73
0
 40
0.0000000000
  0
LTYPE
  2
DASHDOT
 70
64
  3
DASHDOT
 72
65
 73
4
 40
1.0000000000
 49
0.5000000000
 49
-0.2500000000
 49
0.0000000000
 49
-0.2500000000
  0
ENDTAB
  0
TABLE
  2
LAYER
 70
2
  0
LAYER
  2
0
 70
0
 62
2
  6
CONTINUOUS
  0
LAYER
  2
249
 70
0
 62
2
  6
CONTINUOUS
  0
ENDTAB
  0
TABLE
  2
STYLE
 70
0
  0
STYLE
  2
Standard
 70
0
 40
0
 41
1
 50
0
 71
0
 42
2.5
  3
txt
  4

  0
ENDTAB
  0
ENDSEC
  0
SECTION
  2
BLOCKS
  0
BLOCK
  8
0
 62
140
  6
CONTINUOUS
  2
TELL_2
 70
0
 10
0
 20
0.79113924050053019
  0
LINE
  8
0
 62
50
  6
CONTINUOUS
 10
-1.8459915611679039
 20
0.52742616033368683
 11
-1.3185654008342171
 21
1.0548523206673737
  0
LINE
  8
0
 62
50
  6
CONTINUOUS
 10
-1.3185654008342171
 20
1.0548523206673737
 11
1.3185654008342171
 21
1.0548523206673737
  0
LINE
  8
0
 62
50
  6
CONTINUOUS
 10
1.3185654008342171
 20
1.0548523206673737
 11
1.8459915611679039
 21
0.52742616033368683
  0
LINE
  8
0
 62
50
  6
CONTINUOUS
 10
1.8459915611679039
 20
0.52742616033368683
 11
-1.8459915611679039
 21
0.52742616033368683
  0
ENDBLK
  0
BLOCK
  8
249
 62
5
  6
DASHDOT
  2
TELL_3
 70
0
 10
0
 20
5.2742616033368686
  0
LINE
  8
249
 62
50
  6
CONTINUOUS
 10
0
 20
6.3095943645342896
 11
-0.89662447256726763
 21
5.7919279839355786
  0
LINE
  8
249
 62
50
  6
CONTINUOUS
 10
-0.89662447256726763
 20
5.7919279839355786
 11
-0.89662447256726763
 21
4.7565952227381576
  0
LINE
  8
249
 62
50
  6
CONTINUOUS
 10
-0.89662447256726763
 20
4.7565952227381576
 11
0
 21
4.2389288421394467
  0
LINE
  8
249
 62
50
  6
CONTINUOUS
 10
0
 20
4.2389288421394467
 11
0.89662447256726763
 21
4.7565952227381576
  0
LINE
  8
249
 62
50
  6
CONTINUOUS
 10
0.89662447256726763
 20
4.7565952227381576
 11
0.89662447256726763
 21
5.7919279839355786
  0
LINE
  8
249
 62
50
  6
CONTINUOUS
 10
0.89662447256726763
 20
5.7919279839355786
 11
0
 21
6.3095943645342896
  0
CIRCLE
  8
249
 62
50
  6
CONTINUOUS
 10
0
 20
5.2742616033368686
 40
0.89662447256726774
  0
LINE
  8
249
 62
5
  6
DASHDOT
 10
0
 20
4.0279583780059713
 11
0
 21
6.5205648286677649
  0
LINE
  8
249
 62
5
  6
DASHDOT
 10
-1.2463032253309083
 20
5.2742616033368686
 11
1.2463032253309083
 21
5.2742616033368686
  0
ENDBLK
  0
BLOCK
  8
0
 62
50
  6
CONTINUOUS
  2
TELL_1
 70
0
 10
-3.668439204513443e-011
 20
-1.8324207598877218e-010
  0
INSERT
  8
0
 62
140
  6
CONTINUOUS
  2
TELL_2
 10
0
 20
0.79113924050053019
 41
1.0
 42
1.0
 50
0.0
  0
LINE
  8
0
 62
50
  6
CONTINUOUS
 10
2.1624472573681159
 20
6.7510548522711913
 11
2.1624472573681159
 21
3.7974683544025449
  0
LINE
  8
0
 62
50
  6
CONTINUOUS
 10
-2.1624472573681279
 20
3.7974683544025449
 11
-2.1624472573681279
 21
6.7510548522711913
  0
LINE
  8
0
 62
50
  6
CONTINUOUS
 10
-1.3185654008342171
 20
6.8565400843379285
 11
1.3185654008342171
 21
6.8565400843379285
  0
LINE
  8
0
 62
50
  6
CONTINUOUS
 10
1.3185654008342171
 20
6.8565400843379285
 11
1.3185654008342171
 21
6.7510548522711913
  0
LINE
  8
0
 62
50
  6
CONTINUOUS
 10
-1.3185654008342171
 20
1.0548523206673737
 11
-1.3185654008342171
 21
3.7974683544025449
  0
LINE
  8
0
 62
50
  6
CONTINUOUS
 10
1.3185654008342171
 20
3.7974683544025449
 11
1.3185654008342171
 21
1.0548523206673737
  0
LINE
  8
0
 62
50
  6
CONTINUOUS
 10
-1.3185654008342171
 20
6.7510548522711913
 11
-1.3185654008342171
 21
6.8565400843379285
  0
LINE
  8
0
 62
50
  6
CONTINUOUS
 10
-1.8459915611679039
 20
0.52742616033368683
 11
-1.3185654008342171
 21
1.0548523206673737
  0
LINE
  8
0
 62
50
  6
CONTINUOUS
 10
1.3185654008342171
 20
1.0548523206673737
 11
1.8459915611679039
 21
0.52742616033368683
  0
LINE
  8
0
 62
50
  6
CONTINUOUS
 10
-1.8459915611679039
 20
0.52742616033368683
 11
1.8459915611679039
 21
0.52742616033368683
  0
LINE
  8
0
 62
50
  6
CONTINUOUS
 10
-1.3185654008342171
 20
1.0548523206673737
 11
1.3185654008342171
 21
1.0548523206673737
  0
LINE
  8
0
 62
50
  6
CONTINUOUS
 10
-2.1624472573681279
 20
3.7974683544025449
 11
2.1624472573681159
 21
3.7974683544025449
  0
LINE
  8
0
 62
5
  6
CONTINUOUS
 10
1.5295358649310073
 20
6.6455696202044541
 11
1.5295358649310073
 21
3.9029535864692826
  0
LINE
  8
0
 62
5
  6
CONTINUOUS
 10
-1.5295358650043882
 20
3.9029535864692826
 11
-1.5295358650043882
 21
6.6455696202044541
  0
LINE
  8
0
 62
50
  6
CONTINUOUS
 10
-2.1624472573681279
 20
6.7510548522711913
 11
2.1624472573681159
 21
6.7510548522711913
  0
LINE
  8
0
 62
50
  6
CONTINUOUS
 10
3.1645569620021208
 20
0.52742616033368683
 11
3.1645569620021208
 21
0
  0
LINE
  8
0
 62
50
  6
CONTINUOUS
 10
-3.1645569620021208
 20
0
 11
-3.1645569620021208
 21
0.52742616033368683
  0
LINE
  8
0
 62
50
  6
CONTINUOUS
 10
-3.1645569620021208
 20
0.52742616033368683
 11
3.1645569620021208
 21
0.52742616033368683
  0
LINE
  8
0
 62
50
  6
CONTINUOUS
 10
-2.1097046413347473
 20
0
 11
-2.1097046413347473
 21
0.52742616033368683
  0
LINE
  8
0
 62
50
  6
CONTINUOUS
 10
2.1097046413347473
 20
0.52742616033368683
 11
2.1097046413347473
 21
0
  0
LINE
  8
0
 62
50
  6
CONTINUOUS
 10
-3.1645569620021208
 20
0
 11
3.1645569620021208
 21
0
  0
INSERT
  8
249
 62
5
  6
DASHDOT
  2
TELL_3
 10
0
 20
5.2742616033368686
 41
1.0
 42
1.0
 50
0.0
  0
LINE
  8
0
 62
5
  6
DASHDOT
 10
0
 20
-0.31645569620021208
 11
0
 21
1.3713080168675857
  0
ENDBLK
  0
BLOCK
  8
249
 62
5
  6
DASHDOT
  2
TELL_5
 70
0
 10
-3.6684392045089762e-011
 20
-12.025316455819029
  0
LINE
  8
249
 62
50
  6
CONTINUOUS
 10
1.0337552742540215
 20
-12.078059071641425
 11
1.0337552742540226
 21
-12.694464607348273
  0
ARC
  8
249
 62
50
  6
CONTINUOUS
 10
0.77531645569051644
 20
-12.246835442948198
 40
0.51687763712701307
 50
227.54026094004348
 51
300
  0
ARC
  8
249
 62
50
  6
CONTINUOUS
 10
-5.9961412303262968e-015
 20
-12.02531645560806
 40
0.73839662446716159
 50
234.72863805591317
 51
305.27136194408683
  0
ARC
  8
249
 62
50
  6
CONTINUOUS
 10
-0.77531645569052765
 20
-12.246835442948198
 40
0.51687763712701307
 50
240
 51
312.45973905995652
  0
LINE
  8
249
 62
50
  6
CONTINUOUS
 10
-1.0337552742540321
 20
-12.694464607348273
 11
-1.0337552742540335
 21
-12.078059071641432
  0
LINE
  8
249
 62
50
  6
CONTINUOUS
 10
0.42638685279222938
 20
-12.628162892763042
 11
0.42638685279222843
 21
-12.078059071641428
  0
LINE
  8
249
 62
50
  6
CONTINUOUS
 10
-0.42638685279223948
 20
-12.628162892763042
 11
-0.42638685279224042
 21
-12.078059071641428
  0
LINE
  8
249
 62
50
  6
CONTINUOUS
 10
0.7753164556905171
 20
-12.76371308007522
 11
-0.77531645569052088
 21
-12.76371308007522
  0
LINE
  8
249
 62
5
  6
CONTINUOUS
 10
0.52742616033368084
 20
-12.02531645560806
 11
0.52742616033367784
 21
-10.015822784736693
  0
LINE
  8
249
 62
5
  6
CONTINUOUS
 10
0.52742616033367784
 20
-10.015822784736693
 11
0.42721518987027834
 21
-9.9156118142733121
  0
LINE
  8
249
 62
5
  6
CONTINUOUS
 10
0.42721518987027834
 20
-9.9156118142733121
 11
-0.42721518987029672
 21
-9.9156118142733121
  0
LINE
  8
249
 62
5
  6
CONTINUOUS
 10
-0.42721518987029672
 20
-9.9156118142733121
 11
-0.52742616033369583
 21
-10.015822784736693
  0
LINE
  8
249
 62
5
  6
CONTINUOUS
 10
-0.52742616033369583
 20
-10.015822784736693
 11
-0.52742616033369283
 21
-12.02531645560806
  0
LINE
  8
249
 62
5
  6
CONTINUOUS
 10
0.52742616033367784
 20
-10.015822784736693
 11
-0.52742616033369583
 21
-10.015822784736693
  0
LINE
  8
249
 62
50
  6
CONTINUOUS
 10
-1.0337552742540335
 20
-12.078059071641432
 11
1.0337552742540215
 21
-12.078059071641425
  0
LINE
  8
249
 62
50
  6
CONTINUOUS
 10
0.89662447256726163
 20
-12.078059071641428
 11
0.89662447256726163
 21
-12.02531645560806
  0
LINE
  8
249
 62
50
  6
CONTINUOUS
 10
-0.89662447256727362
 20
-12.02531645560806
 11
-0.89662447256727362
 21
-12.078059071641428
  0
LINE
  8
249
 62
5
  6
CONTINUOUS
 10
0.42721518987027834
 20
-9.9156118142733121
 11
0.42721518987028151
 21
-12.02531645560806
  0
LINE
  8
249
 62
5
  6
CONTINUOUS
 10
-0.42721518987029672
 20
-9.9156118142733121
 11
-0.4272151898702935
 21
-12.02531645560806
  0
ENDBLK
  0
BLOCK
  8
0
 62
50
  6
CONTINUOUS
  2
TELL_4
 70
0
 10
-3.6684392045089762e-011
 20
-11.075949367218392
  0
LINE
  8
0
 62
50
  6
CONTINUOUS
 10
-2.1097046413347593
 20
-4.2194092826694947
 11
2.1097046413347353
 21
-4.2194092826694947
  0
LINE
  8
0
 62
50
  6
CONTINUOUS
 10
2.1097046413347353
 20
-4.2194092826694947
 11
3.1645569620021088
 21
-4.828428553962107
  0
LINE
  8
0
 62
50
  6
CONTINUOUS
 10
3.1645569620021088
 20
-4.828428553962107
 11
3.1645569620021208
 21
-17.323470180052741
  0
LINE
  8
0
 62
50
  6
CONTINUOUS
 10
3.1645569620021208
 20
-17.323470180052741
 11
2.1097046413347473
 21
-17.932489451345351
  0
LINE
  8
0
 62
50
  6
CONTINUOUS
 10
2.1097046413347473
 20
-17.932489451345351
 11
-2.1097046413347473
 21
-17.932489451345351
  0
LINE
  8
0
 62
50
  6
CONTINUOUS
 10
-2.1097046413347473
 20
-17.932489451345351
 11
-3.1645569620021208
 21
-17.323470180052787
  0
LINE
  8
0
 62
50
  6
CONTINUOUS
 10
-3.1645569620021208
 20
-17.323470180052787
 11
-3.1645569620021328
 21
-4.8284285539620591
  0
LINE
  8
0
 62
50
  6
CONTINUOUS
 10
-3.1645569620021328
 20
-4.8284285539620591
 11
-2.1097046413347593
 21
-4.2194092826694947
  0
LINE
  8
0
 62
50
  6
CONTINUOUS
 10
0.58016877636704955
 20
-7.6476793248384585
 11
0.58016877636704356
 21
-5.6434599155704488
  0
LINE
  8
0
 62
50
  6
CONTINUOUS
 10
-0.58016877636706754
 20
-5.6434599155704488
 11
-0.58016877636706154
 21
-7.6476793248384585
  0
LINE
  8
0
 62
50
  6
CONTINUOUS
 10
-0.58016877636706154
 20
-14.504219409176388
 11
-0.58016877636705555
 21
-16.508438818444397
  0
LINE
  8
0
 62
50
  6
CONTINUOUS
 10
0.58016877636705555
 20
-16.508438818444397
 11
0.58016877636704955
 21
-14.504219409176388
  0
LINE
  8
0
 62
50
  6
CONTINUOUS
 10
-1.8459915611679159
 20
-11.392405063207635
 11
-1.8219028056336901
 21
-11.513507415221023
  0
LINE
  8
0
 62
50
  6
CONTINUOUS
 10
-1.8219028056336901
 20
-11.513507415221023
 11
-1.7533038336959974
 21
-11.616173031935952
  0
LINE
  8
0
 62
50
  6
CONTINUOUS
 10
-1.7533038336959974
 20
-11.616173031935952
 11
-1.6506382169810907
 21
-11.684772003873597
  0
LINE
  8
0
 62
50
  6
CONTINUOUS
 10
-1.6506382169810907
 20
-11.684772003873597
 11
-1.5295358649677038
 21
-11.708860759407848
  0
LINE
  8
0
 62
50
  6
CONTINUOUS
 10
1.8459915611679039
 20
-11.392405063207635
 11
1.8219028056336781
 21
-11.513507415221023
  0
LINE
  8
0
 62
50
  6
CONTINUOUS
 10
1.8219028056336781
 20
-11.513507415221023
 11
1.7533038336959854
 21
-11.616173031935904
  0
LINE
  8
0
 62
50
  6
CONTINUOUS
 10
1.7533038336959854
 20
-11.616173031935904
 11
1.6506382169810787
 21
-11.684772003873597
  0
LINE
  8
0
 62
50
  6
CONTINUOUS
 10
1.6506382169810787
 20
-11.684772003873597
 11
1.5295358649676918
 21
-11.708860759407848
  0
LINE
  8
0
 62
50
  6
CONTINUOUS
 10
-1.8459915611679159
 20
-11.075949367007423
 11
-1.8459915611679159
 21
-11.392405063207635
  0
LINE
  8
0
 62
50
  6
CONTINUOUS
 10
-1.5295358649677038
 20
-11.708860759407848
 11
1.5295358649676918
 21
-11.708860759407848
  0
LINE
  8
0
 62
50
  6
CONTINUOUS
 10
1.8459915611679039
 20
-11.392405063207635
 11
1.8459915611679039
 21
-11.075949367007423
  0
LINE
  8
0
 62
50
  6
CONTINUOUS
 10
1.8459915611679039
 20
-11.075949367007423
 11
2.1624472573681159
 21
-11.075949367007423
  0
LINE
  8
0
 62
50
  6
CONTINUOUS
 10
2.1624472573681159
 20
-11.075949367007423
 11
2.1624472573681159
 21
-11.392405063207635
  0
LINE
  8
0
 62
50
  6
CONTINUOUS
 10
1.5295358649676918
 20
-12.02531645560806
 11
-1.5295358649677038
 21
-12.02531645560806
  0
LINE
  8
0
 62
50
  6
CONTINUOUS
 10
-2.1624472573681279
 20
-11.392405063207635
 11
-2.1624472573681279
 21
-11.075949367007423
  0
LINE
  8
0
 62
50
  6
CONTINUOUS
 10
-2.1624472573681279
 20
-11.075949367007423
 11
-1.8459915611679159
 21
-11.075949367007423
  0
LINE
  8
0
 62
50
  6
CONTINUOUS
 10
1.3185654008342111
 20
-10.654008438740474
 11
1.3185654008342111
 21
-11.497890295274372
  0
LINE
  8
0
 62
50
  6
CONTINUOUS
 10
1.3185654008342111
 20
-11.497890295274372
 11
-1.3185654008342231
 21
-11.497890295274372
  0
LINE
  8
0
 62
50
  6
CONTINUOUS
 10
-1.3185654008342231
 20
-11.497890295274372
 11
-1.3185654008342231
 21
-10.654008438740474
  0
LINE
  8
0
 62
50
  6
CONTINUOUS
 10
-1.3185654008342231
 20
-10.654008438740474
 11
1.3185654008342111
 21
-10.654008438740474
  0
ARC
  8
0
 62
50
  6
CONTINUOUS
 10
-5.9961412299990891e-015
 20
-7.6476793248384585
 40
0.58016877636705599
 50
180
 51
0
  0
ARC
  8
0
 62
50
  6
CONTINUOUS
 10
-1.1992282459998178e-014
 20
-5.6434599155704488
 40
0.58016877636705588
 50
0
 51
180
  0
ARC
  8
0
 62
50
  6
CONTINUOUS
 10
0
 20
-16.508438818444397
 40
0.58016877636705677
 50
180
 51
0
  0
ARC
  8
0
 62
50
  6
CONTINUOUS
 10
-5.9961412299990891e-015
 20
-14.504219409176388
 40
0.58016877636705555
 50
0
 51
180
  0
ARC
  8
0
 62
50
  6
CONTINUOUS
 10
-1.5295358649677038
 20
-11.392405063207635
 40
0.63291139240042593
 50
180
 51
270.00000000000045
  0
ARC
  8
0
 62
50
  6
CONTINUOUS
 10
1.5295358649676918
 20
-11.392405063207635
 40
0.63291139240041927
 50
269.99999999999932
 51
0
  0
INSERT
  8
249
 62
5
  6
DASHDOT
  2
TELL_5
 10
-3.6684392045089762e-011
 20
-12.025316455819029
 41
1.0
 42
1.0
 50
0.0
  0
LINE
  8
0
 62
5
  6
DASHDOT
 10
-5.9961412299990891e-015
 20
-18.143459915478825
 11
-5.9961412299990891e-015
 21
-4.0084388185360202
  0
LINE
  8
0
 62
5
  6
DASHDOT
 10
-0.79113924050053619
 20
-15.506329113810393
 11
0.7911392405005242
 21
-15.506329113810393
  0
LINE
  8
0
 62
5
  6
DASHDOT
 10
-0.79113924050053619
 20
-6.6455696202044541
 11
0.7911392405005242
 21
-6.6455696202044541
  0
ENDBLK
  0
BLOCK
  8
0
 62
140
  6
CONTINUOUS
  2
TELL_6
 70
0
 10
14.240506328972812
 20
0.79113924068377228
  0
LINE
  8
0
 62
50
  6
CONTINUOUS
 10
15.189873417573471
 20
0.52742616051693492
 11
14.662447257239782
 21
1.0548523208506186
  0
LINE
  8
0
 62
50
  6
CONTINUOUS
 10
14.662447257239782
 20
1.0548523208506186
 11
13.818565400705884
 21
1.0548523208506126
  0
LINE
  8
0
 62
50
  6
CONTINUOUS
 10
13.818565400705884
 20
1.0548523208506126
 11
13.2911392403722
 21
0.52742616051692293
  0
LINE
  8
0
 62
50
  6
CONTINUOUS
 10
13.291139240372175
 20
0.52742616051692293
 11
15.189873417573448
 21
0.52742616051693492
  0
ENDBLK
  0
BLOCK
  8
0
 62
5
  6
DASHDOT
  2
TELL_7
 70
0
 10
15.189873417610171
 20
5.2742616033368694
  0
LINE
  8
0
 62
50
  6
CONTINUOUS
 10
15.242616033606804
 20
4.2405063292660694
 11
15.859021569313649
 21
4.2405063292660721
  0
ARC
  8
0
 62
50
  6
CONTINUOUS
 10
15.411392404913576
 20
4.4989451478296045
 40
0.51687763712701307
 50
330
 51
42.459739059956519
  0
ARC
  8
0
 62
50
  6
CONTINUOUS
 10
15.18987341757343
 20
5.2742616035201122
 40
0.73839662446716159
 50
324.72863805591317
 51
35.271361944086834
  0
ARC
  8
0
 62
50
  6
CONTINUOUS
 10
15.411392404913613
 20
6.0495780592106252
 40
0.51687763712701307
 50
317.54026094004348
 51
30
  0
LINE
  8
0
 62
50
  6
CONTINUOUS
 10
15.85902156931364
 20
6.308016877774163
 11
15.242616033606796
 21
6.3080168777741603
  0
LINE
  8
0
 62
50
  6
CONTINUOUS
 10
15.792719854728418
 20
4.847874750727871
 11
15.242616033606804
 21
4.8478747507278683
  0
LINE
  8
0
 62
50
  6
CONTINUOUS
 10
15.792719854728412
 20
5.7006484563123641
 11
15.242616033606799
 21
5.7006484563123614
  0
LINE
  8
0
 62
50
  6
CONTINUOUS
 10
15.928270042040598
 20
4.4989451478296081
 11
15.928270042040589
 21
6.0495780592106279
  0
LINE
  8
0
 62
5
  6
CONTINUOUS
 10
15.189873417573436
 20
4.7468354431864279
 11
13.180379746702117
 21
4.7468354431864155
  0
LINE
  8
0
 62
5
  6
CONTINUOUS
 10
13.180379746702117
 20
4.7468354431864155
 11
13.080168776238688
 21
4.8470464136497968
  0
LINE
  8
0
 62
5
  6
CONTINUOUS
 10
13.080168776238688
 20
4.8470464136497968
 11
13.080168776238684
 21
5.7014767933904071
  0
LINE
  8
0
 62
5
  6
CONTINUOUS
 10
13.080168776238684
 20
5.7014767933904071
 11
13.180379746702114
 21
5.8016877638537885
  0
LINE
  8
0
 62
5
  6
CONTINUOUS
 10
13.180379746702114
 20
5.8016877638537885
 11
15.18987341757343
 21
5.8016877638538018
  0
LINE
  8
0
 62
5
  6
CONTINUOUS
 10
13.180379746702117
 20
4.7468354431864155
 11
13.180379746702114
 21
5.8016877638537885
  0
LINE
  8
0
 62
50
  6
CONTINUOUS
 10
15.242616033606796
 20
6.3080168777741603
 11
15.242616033606804
 21
4.2405063292660694
  0
LINE
  8
0
 62
50
  6
CONTINUOUS
 10
15.242616033606804
 20
4.3776371309528468
 11
15.189873417573436
 21
4.3776371309528468
  0
LINE
  8
0
 62
50
  6
CONTINUOUS
 10
15.189873417573427
 20
6.170886076087382
 11
15.242616033606796
 21
6.170886076087382
  0
LINE
  8
0
 62
5
  6
CONTINUOUS
 10
13.080168776238688
 20
4.8470464136497968
 11
15.189873417573436
 21
4.8470464136498093
  0
LINE
  8
0
 62
5
  6
CONTINUOUS
 10
13.080168776238684
 20
5.7014767933904071
 11
15.18987341757343
 21
5.7014767933904205
  0
LINE
  8
0
 62
5
  6
DASHDOT
 10
12.86919831210521
 20
5.2742616035201024
 11
16.139240506174065
 21
5.2742616035201175
  0
ENDBLK
  0
BLOCK
  8
0
 62
50
  6
CONTINUOUS
  2
3_50_CKB
 70
0
 10
14.240506329009545
 20
-1.832420759891632e-010
  0
INSERT
  8
0
 62
140
  6
CONTINUOUS
  2
TELL_6
 10
14.240506328972812
 20
0.79113924068377228
 41
1.0
 42
1.0
 50
0.0
  0
LINE
  8
0
 62
50
  6
CONTINUOUS
 10
15.189873417573471
 20
0.52742616051693192
 11
14.662447257239782
 21
1.0548523208506173
  0
LINE
  8
0
 62
50
  6
CONTINUOUS
 10
14.66244725723976
 20
6.8565400845211704
 11
13.818565400705863
 21
6.8565400845211704
  0
LINE
  8
0
 62
50
  6
CONTINUOUS
 10
13.818565400705863
 20
6.8565400845211704
 11
13.818565400705884
 21
1.0548523208506142
  0
LINE
  8
0
 62
50
  6
CONTINUOUS
 10
14.662447257239782
 20
1.0548523208506173
 11
14.662447257239773
 21
3.7974683545857872
  0
LINE
  8
0
 62
50
  6
CONTINUOUS
 10
14.662447257239764
 20
6.7510548524544332
 11
14.66244725723976
 21
6.8565400845211704
  0
LINE
  8
0
 62
50
  6
CONTINUOUS
 10
13.818565400705884
 20
1.0548523208506142
 11
13.2911392403722
 21
0.52742616051692592
  0
LINE
  8
0
 62
50
  6
CONTINUOUS
 10
15.189873417573461
 20
3.7974683545857904
 11
15.189873417573448
 21
6.7510548524544332
  0
LINE
  8
0
 62
50
  6
CONTINUOUS
 10
14.662447257239782
 20
1.0548523208506173
 11
13.818565400705884
 21
1.0548523208506142
  0
LINE
  8
0
 62
50
  6
CONTINUOUS
 10
15.189873417573448
 20
6.7510548524544332
 11
14.240506328972815
 21
6.7510548524544332
  0
LINE
  8
0
 62
50
  6
CONTINUOUS
 10
14.240506328972815
 20
6.7510548524544332
 11
14.240506328972824
 21
3.7974683545857872
  0
LINE
  8
0
 62
50
  6
CONTINUOUS
 10
15.189873417573461
 20
3.7974683545857904
 11
14.240506328972824
 21
3.7974683545857872
  0
LINE
  8
0
 62
50
  6
CONTINUOUS
 10
7.3839662446716154
 20
0.52742616033366585
 11
7.3839662446716154
 21
-2.1000588379272323e-014
  0
LINE
  8
0
 62
50
  6
CONTINUOUS
 10
21.097046413347474
 20
2.1000588379272323e-014
 11
21.097046413347474
 21
0.52742616033370782
  0
LINE
  8
0
 62
50
  6
CONTINUOUS
 10
21.097046413347474
 20
2.1000588379272323e-014
 11
7.3839662446716154
 21
-2.1000588379272323e-014
  0
LINE
  8
0
 62
50
  6
CONTINUOUS
 10
20.488027142054921
 20
1.9135250632537535e-014
 11
20.488027142054921
 21
0.52742616033370593
  0
LINE
  8
0
 62
50
  6
CONTINUOUS
 10
21.097046413347474
 20
0.52742616033370782
 11
15.189873417573448
 21
0.52742616051693192
  0
LINE
  8
0
 62
50
  6
CONTINUOUS
 10
15.189873417573448
 20
0.52742616051693192
 11
13.291139240372175
 21
0.52742616051692592
  0
LINE
  8
0
 62
50
  6
CONTINUOUS
 10
13.291139240372175
 20
0.52742616051692592
 11
7.3839662446716154
 21
0.52742616033366585
  0
LINE
  8
0
 62
50
  6
CONTINUOUS
 10
7.9929855159641914
 20
0.52742616033366774
 11
7.9929855159642038
 21
-1.9135250632537535e-014
  0
INSERT
  8
0
 62
5
  6
DASHDOT
  2
TELL_7
 10
15.189873417610171
 20
5.2742616033368694
 41
1.0
 42
1.0
 50
0.0
  0
LINE
  8
0
 62
5
  6
DASHDOT
 10
9.8101265822065749
 20
-0.31645569620022557
 11
9.8101265822065749
 21
0.84388185671712745
  0
LINE
  8
0
 62
5
  6
DASHDOT
 10
18.670886075812536
 20
-0.31645569620019859
 11
18.670886075812536
 21
0.84388185671715443
  0
LINE
  8
0
 62
5
  6
CONTINUOUS
 10
14.556962025173036
 20
3.9029535866525245
 11
14.556962025173027
 21
6.6455696203876959
  0
ENDBLK
  0
ENDSEC
  0
SECTION
  2
ENTITIES
  0
INSERT
  8
0
 62
50
  6
CONTINUOUS
  2
TELL_1
 10
-3.668439204513443e-011
 20
-1.8324207598877218e-010
 41
1.0
 42
1.0
 50
0.0
  0
INSERT
  8
0
 62
50
  6
CONTINUOUS
  2
TELL_4
 10
-3.6684392045089762e-011
 20
-11.075949367218392
 41
1.0
 42
1.0
 50
0.0
  0
INSERT
  8
0
 62
50
  6
CONTINUOUS
  2
3_50_CKB
 10
14.240506329009545
 20
-1.832420759891632e-010
 41
1.0
 42
1.0
 50
0.0
  0
ENDSEC
  0
EOF
